ISO-10303-21;
HEADER;
FILE_DESCRIPTION (( 'STEP AP203' ),
    '1' );
FILE_NAME ('53760.step',
    '2021-09-02T13:38:07',
    ( '' ),
    ( '' ),
    'SwSTEP 2.0',
    'SolidWorks 2019',
    '' );
FILE_SCHEMA (( 'CONFIG_CONTROL_DESIGN' ));
ENDSEC;

DATA;
#1 = ORIENTED_EDGE ( 'NONE', *, *, #67, .F. ) ;
#2 = ORIENTED_EDGE ( 'NONE', *, *, #224, .T. ) ;
#3 = ORIENTED_EDGE ( 'NONE', *, *, #86, .T. ) ;
#4 = EDGE_CURVE ( 'NONE', #75, #317, #113, .T. ) ;
#5 = VERTEX_POINT ( 'NONE', #107 ) ;
#6 = AXIS2_PLACEMENT_3D ( 'NONE', #199, #329, #225 ) ;
#7 = EDGE_LOOP ( 'NONE', ( #236, #106 ) ) ;
#8 = FACE_OUTER_BOUND ( 'NONE', #108, .T. ) ;
#9 = DIRECTION ( 'NONE',  ( -3.491481338843133355E-15, 1.224646799147353207E-16, -1.000000000000000000 ) ) ;
#10 = LINE ( 'NONE', #111, #31 ) ;
#11 = ADVANCED_FACE ( 'NONE', ( #52 ), #103, .T. ) ;
#12 = DIRECTION ( 'NONE',  ( 0.0000000000000000000, 1.000000000000000000, 0.0000000000000000000 ) ) ;
#13 = DIRECTION ( 'NONE',  ( 3.491481338843133355E-15, -1.224646799147353207E-16, 1.000000000000000000 ) ) ;
#14 = EDGE_CURVE ( 'NONE', #297, #322, #16, .T. ) ;
#15 = MANIFOLD_SOLID_BREP ( 'Corps-Déplacer/Copier1[1]', #286 ) ;
#16 = CIRCLE ( 'NONE', #130, 2.250000000000000444 ) ;
#17 = CARTESIAN_POINT ( 'NONE',  ( 3.249833100422195498E-13, -2.250000000000011546, 93.00000000000000000 ) ) ;
#18 = CARTESIAN_POINT ( 'NONE',  ( 3.226128757091054968E-13, -1.131573642412154441E-14, 92.39999999999999147 ) ) ;
#19 = PERSON_AND_ORGANIZATION_ROLE ( 'creator' ) ;
#20 = CONICAL_SURFACE ( 'NONE', #334, 2.250000000000000444, 0.7853981633974453924 ) ;
#21 = DATE_AND_TIME ( #208, #202 ) ;
#22 = ORIENTED_EDGE ( 'NONE', *, *, #104, .F. ) ;
#23 = ORIENTED_EDGE ( 'NONE', *, *, #14, .T. ) ;
#24 = APPROVAL_ROLE ( '' ) ;
#25 = AXIS2_PLACEMENT_3D ( 'NONE', #278, #191, #34 ) ;
#26 = AXIS2_PLACEMENT_3D ( 'NONE', #105, #85, #292 ) ;
#27 = CARTESIAN_POINT ( 'NONE',  ( 1.218611962080632213E-30, 2.849999999999997868, 3.490243377569954089E-16 ) ) ;
#28 = CC_DESIGN_DATE_AND_TIME_ASSIGNMENT ( #102, #151, ( #100 ) ) ;
#29 = VERTEX_POINT ( 'NONE', #213 ) ;
#30 = EDGE_LOOP ( 'NONE', ( #294, #232, #127, #267 ) ) ;
#31 = VECTOR ( 'NONE', #38, 1000.000000000000000 ) ;
#32 = CLOSED_SHELL ( 'NONE', ( #289, #170, #337, #46, #120 ) ) ;
#33 = FACE_OUTER_BOUND ( 'NONE', #54, .T. ) ;
#34 = DIRECTION ( 'NONE',  ( 1.000000000000000000, 0.0000000000000000000, 0.0000000000000000000 ) ) ;
#35 = DIRECTION ( 'NONE',  ( -2.468850131082271655E-15, 0.7071067811865455743, -0.7071067811865493491 ) ) ;
#36 = EDGE_CURVE ( 'NONE', #29, #136, #73, .T. ) ;
#37 = DIRECTION ( 'NONE',  ( -3.491481338843133355E-15, 1.224646799147353207E-16, -1.000000000000000000 ) ) ;
#38 = DIRECTION ( 'NONE',  ( 1.798245827342160317E-15, -0.8571673007021098911, 0.5150380749100582634 ) ) ;
#39 = EDGE_CURVE ( 'NONE', #319, #50, #313, .T. ) ;
#40 =( LENGTH_UNIT ( ) NAMED_UNIT ( * ) SI_UNIT ( .MILLI., .METRE. ) );
#41 = APPROVAL_ROLE ( '' ) ;
#42 = CIRCLE ( 'NONE', #238, 2.850000000000000089 ) ;
#43 = DIRECTION ( 'NONE',  ( 0.0000000000000000000, 1.000000000000000000, 0.0000000000000000000 ) ) ;
#44 = DIRECTION ( 'NONE',  ( 0.0000000000000000000, 1.000000000000000000, 0.0000000000000000000 ) ) ;
#45 = DATE_AND_TIME ( #77, #186 ) ;
#46 = ADVANCED_FACE ( 'NONE', ( #211 ), #134, .T. ) ;
#47 = APPROVAL_PERSON_ORGANIZATION ( #261, #276, #24 ) ;
#48 = AXIS2_PLACEMENT_3D ( 'NONE', #250, #97, #252 ) ;
#49 = CC_DESIGN_PERSON_AND_ORGANIZATION_ASSIGNMENT ( #266, #74, ( #100 ) ) ;
#50 = VERTEX_POINT ( 'NONE', #116 ) ;
#51 = PERSON_AND_ORGANIZATION_ROLE ( 'creator' ) ;
#52 = FACE_OUTER_BOUND ( 'NONE', #215, .T. ) ;
#53 = APPROVAL_DATE_TIME ( #240, #276 ) ;
#54 = EDGE_LOOP ( 'NONE', ( #22, #76 ) ) ;
#55 = ORIENTED_EDGE ( 'NONE', *, *, #14, .F. ) ;
#56 = CARTESIAN_POINT ( 'NONE',  ( 0.0000000000000000000, 0.0000000000000000000, 0.0000000000000000000 ) ) ;
#57 = ADVANCED_FACE ( 'NONE', ( #200 ), #230, .F. ) ;
#58 = ORIENTED_EDGE ( 'NONE', *, *, #174, .F. ) ;
#59 = ORIENTED_EDGE ( 'NONE', *, *, #203, .T. ) ;
#60 = CARTESIAN_POINT ( 'NONE',  ( 5.978996869954351872E-15, -2.849999999999988987, 1.712452764228558522 ) ) ;
#61 = DIRECTION ( 'NONE',  ( 4.275831445896958607E-31, 1.000000000000000000, 1.224646799147353207E-16 ) ) ;
#62 = VECTOR ( 'NONE', #37, 1000.000000000000000 ) ;
#63 = AXIS2_PLACEMENT_3D ( 'NONE', #244, #258, #178 ) ;
#64 = DIRECTION ( 'NONE',  ( -3.491481338843133355E-15, 1.224646799147353207E-16, -1.000000000000000000 ) ) ;
#65 = CARTESIAN_POINT ( 'NONE',  ( 1.990144363140586139E-13, -6.980486755139912911E-15, 57.00000000000000000 ) ) ;
#66 = DIRECTION ( 'NONE',  ( 3.491481338843133355E-15, -1.224646799147353207E-16, 1.000000000000000000 ) ) ;
#67 = EDGE_CURVE ( 'NONE', #239, #319, #42, .T. ) ;
#68 = LINE ( 'NONE', #17, #255 ) ;
#69 = CARTESIAN_POINT ( 'NONE',  ( 0.0000000000000000000, 0.0000000000000000000, 0.0000000000000000000 ) ) ;
#70 = CARTESIAN_POINT ( 'NONE',  ( 3.226128757091054968E-13, -1.131573642412154441E-14, 92.39999999999999147 ) ) ;
#71 = ORGANIZATION ( 'UNSPECIFIED', 'UNSPECIFIED', '' ) ;
#72 = ADVANCED_FACE ( 'NONE', ( #287 ), #270, .T. ) ;
#73 = CIRCLE ( 'NONE', #193, 2.849999999999995648 ) ;
#74 = PERSON_AND_ORGANIZATION_ROLE ( 'classification_officer' ) ;
#75 = VERTEX_POINT ( 'NONE', #143 ) ;
#76 = ORIENTED_EDGE ( 'NONE', *, *, #36, .F. ) ;
#77 = CALENDAR_DATE ( 2021, 2, 9 ) ;
#78 = AXIS2_PLACEMENT_3D ( 'NONE', #70, #64, #89 ) ;
#79 = ORIENTED_EDGE ( 'NONE', *, *, #233, .F. ) ;
#80 = DIRECTION ( 'NONE',  ( -3.491481338843133355E-15, 1.224646799147353207E-16, -1.000000000000000000 ) ) ;
#81 = ORIENTED_EDGE ( 'NONE', *, *, #320, .T. ) ;
#82 = CC_DESIGN_DATE_AND_TIME_ASSIGNMENT ( #336, #147, ( #135 ) ) ;
#83 = DIRECTION ( 'NONE',  ( 0.0000000000000000000, 1.000000000000000000, 0.0000000000000000000 ) ) ;
#84 = CYLINDRICAL_SURFACE ( 'NONE', #307, 2.849999999999992095 ) ;
#85 = DIRECTION ( 'NONE',  ( -3.491481338843133355E-15, 1.224646799147353207E-16, -1.000000000000000000 ) ) ;
#86 = EDGE_CURVE ( 'NONE', #319, #239, #256, .T. ) ;
#87 = DIRECTION ( 'NONE',  ( -3.491481338843133355E-15, 1.224646799147353207E-16, -1.000000000000000000 ) ) ;
#88 = CIRCLE ( 'NONE', #146, 2.849999999999995648 ) ;
#89 = DIRECTION ( 'NONE',  ( 0.0000000000000000000, 1.000000000000000000, 0.0000000000000000000 ) ) ;
#90 = FACE_OUTER_BOUND ( 'NONE', #128, .T. ) ;
#91 = CC_DESIGN_PERSON_AND_ORGANIZATION_ASSIGNMENT ( #311, #155, ( #196 ) ) ;
#92 = APPLICATION_PROTOCOL_DEFINITION ( 'international standard', 'config_control_design', 1994, #222 ) ;
#93 = CC_DESIGN_SECURITY_CLASSIFICATION ( #100, ( #196 ) ) ;
#94 = AXIS2_PLACEMENT_3D ( 'NONE', #253, #189, #12 ) ;
#95 = APPROVAL_STATUS ( 'not_yet_approved' ) ;
#96 = FACE_OUTER_BOUND ( 'NONE', #295, .T. ) ;
#97 = DIRECTION ( 'NONE',  ( -3.491481338843133355E-15, 1.224646799147353207E-16, -1.000000000000000000 ) ) ;
#98 = SHAPE_DEFINITION_REPRESENTATION ( #133, #291 ) ;
#99 = COORDINATED_UNIVERSAL_TIME_OFFSET ( 1, 0, .AHEAD. ) ;
#100 = SECURITY_CLASSIFICATION ( '', '', #181 ) ;
#101 = CARTESIAN_POINT ( 'NONE',  ( 1.990144363140586139E-13, -6.980486755139912911E-15, 57.00000000000000000 ) ) ;
#102 = DATE_AND_TIME ( #235, #227 ) ;
#103 = CYLINDRICAL_SURFACE ( 'NONE', #220, 2.849999999999997868 ) ;
#104 = EDGE_CURVE ( 'NONE', #136, #29, #88, .T. ) ;
#105 = CARTESIAN_POINT ( 'NONE',  ( 5.978996869954353449E-15, -2.097149796403541723E-16, 1.712452764228558744 ) ) ;
#106 = ORIENTED_EDGE ( 'NONE', *, *, #174, .T. ) ;
#107 = CARTESIAN_POINT ( 'NONE',  ( 0.0000000000000000000, 0.0000000000000000000, 0.0000000000000000000 ) ) ;
#108 = EDGE_LOOP ( 'NONE', ( #315, #158, #160, #58 ) ) ;
#109 = FACE_OUTER_BOUND ( 'NONE', #184, .T. ) ;
#110 = PLANE ( 'NONE',  #290 ) ;
#111 = CARTESIAN_POINT ( 'NONE',  ( 5.978996869954351872E-15, -2.849999999999988987, 1.712452764228558522 ) ) ;
#112 = LOCAL_TIME ( 15, 38, 7.000000000000000000, #268 ) ;
#113 = CIRCLE ( 'NONE', #26, 2.849999999999988987 ) ;
#114 = CARTESIAN_POINT ( 'NONE',  ( 3.247077645124113894E-13, 1.687229755494573114E-32, 93.00000000000000000 ) ) ;
#115 = EDGE_CURVE ( 'NONE', #322, #297, #179, .T. ) ;
#116 = CARTESIAN_POINT ( 'NONE',  ( 1.990144363140586139E-13, 2.849999999999988987, 57.00000000000000000 ) ) ;
#117 = PERSON_AND_ORGANIZATION_ROLE ( 'design_owner' ) ;
#118 = AXIS2_PLACEMENT_3D ( 'NONE', #169, #328, #192 ) ;
#119 = CARTESIAN_POINT ( 'NONE',  ( 2.611626803493390543E-13, -2.850000000000002753, 57.00000000000000000 ) ) ;
#120 = ADVANCED_FACE ( 'NONE', ( #33 ), #110, .T. ) ;
#121 = CALENDAR_DATE ( 2021, 2, 9 ) ;
#122 = ADVANCED_FACE ( 'NONE', ( #90 ), #300, .F. ) ;
#123 = VECTOR ( 'NONE', #87, 1000.000000000000000 ) ;
#124 = EDGE_LOOP ( 'NONE', ( #242, #265, #185 ) ) ;
#125 = APPROVAL_DATE_TIME ( #21, #248 ) ;
#126 = ORIENTED_EDGE ( 'NONE', *, *, #272, .F. ) ;
#127 = ORIENTED_EDGE ( 'NONE', *, *, #233, .T. ) ;
#128 = EDGE_LOOP ( 'NONE', ( #187, #55 ) ) ;
#129 = CALENDAR_DATE ( 2021, 2, 9 ) ;
#130 = AXIS2_PLACEMENT_3D ( 'NONE', #293, #80, #83 ) ;
#131 = PRODUCT ( '53760', '53760', '', ( #321 ) ) ;
#132 = DIRECTION ( 'NONE',  ( -3.491481338843133355E-15, 1.224646799147353207E-16, -1.000000000000000000 ) ) ;
#133 = PRODUCT_DEFINITION_SHAPE ( 'NONE', 'NONE',  #135 ) ;
#134 = CYLINDRICAL_SURFACE ( 'NONE', #63, 2.849999999999992095 ) ;
#135 = PRODUCT_DEFINITION ( 'UNKNOWN', '', #196, #190 ) ;
#136 = VERTEX_POINT ( 'NONE', #327 ) ;
#137 = AXIS2_PLACEMENT_3D ( 'NONE', #114, #148, #61 ) ;
#138 = FACE_OUTER_BOUND ( 'NONE', #335, .T. ) ;
#139 = CARTESIAN_POINT ( 'NONE',  ( 0.0000000000000000000, 0.0000000000000000000, 0.0000000000000000000 ) ) ;
#140 = CARTESIAN_POINT ( 'NONE',  ( 5.978996869954353449E-15, -2.097149796403541723E-16, 1.712452764228558744 ) ) ;
#141 = DIRECTION ( 'NONE',  ( -4.275831445896958607E-31, -1.000000000000000000, -1.224646799147353207E-16 ) ) ;
#142 = AXIS2_PLACEMENT_3D ( 'NONE', #283, #214, #43 ) ;
#143 = CARTESIAN_POINT ( 'NONE',  ( 6.328021207711349253E-15, 2.849999999999988987, 1.712452764228559188 ) ) ;
#144 = APPLICATION_PROTOCOL_DEFINITION ( 'international standard', 'config_control_design', 1994, #260 ) ;
#145 = DIRECTION ( 'NONE',  ( 4.275831445896958607E-31, 1.000000000000000000, 1.224646799147353207E-16 ) ) ;
#146 = AXIS2_PLACEMENT_3D ( 'NONE', #223, #194, #44 ) ;
#147 = DATE_TIME_ROLE ( 'creation_date' ) ;
#148 = DIRECTION ( 'NONE',  ( -3.491481338843133355E-15, 1.224646799147353207E-16, -1.000000000000000000 ) ) ;
#149 = APPROVAL_DATE_TIME ( #45, #306 ) ;
#150 = EDGE_CURVE ( 'NONE', #322, #319, #167, .T. ) ;
#151 = DATE_TIME_ROLE ( 'classification_date' ) ;
#152 = ORIENTED_EDGE ( 'NONE', *, *, #4, .F. ) ;
#153 = AXIS2_PLACEMENT_3D ( 'NONE', #139, #166, #145 ) ;
#154 = DIRECTION ( 'NONE',  ( -3.491481338843133355E-15, 1.224646799147353207E-16, -1.000000000000000000 ) ) ;
#155 = PERSON_AND_ORGANIZATION_ROLE ( 'design_supplier' ) ;
#156 = APPROVAL_STATUS ( 'not_yet_approved' ) ;
#157 = CIRCLE ( 'NONE', #269, 2.849999999999995648 ) ;
#158 = ORIENTED_EDGE ( 'NONE', *, *, #67, .T. ) ;
#159 = ORIENTED_EDGE ( 'NONE', *, *, #104, .T. ) ;
#160 = ORIENTED_EDGE ( 'NONE', *, *, #39, .T. ) ;
#161 = ADVANCED_FACE ( 'NONE', ( #138 ), #20, .T. ) ;
#162 = EDGE_LOOP ( 'NONE', ( #271, #81, #183, #296 ) ) ;
#163 = CYLINDRICAL_SURFACE ( 'NONE', #153, 2.849999999999997868 ) ;
#164 = CARTESIAN_POINT ( 'NONE',  ( 3.247077645124113894E-13, -1.138921523207038456E-14, 93.00000000000000000 ) ) ;
#165 = CIRCLE ( 'NONE', #142, 2.849999999999995648 ) ;
#166 = DIRECTION ( 'NONE',  ( -3.491481338843133355E-15, 1.224646799147353207E-16, -1.000000000000000000 ) ) ;
#167 = LINE ( 'NONE', #279, #228 ) ;
#168 = UNCERTAINTY_MEASURE_WITH_UNIT (LENGTH_MEASURE( 1.000000000000000082E-05 ), #40, 'distance_accuracy_value', 'NONE');
#169 = CARTESIAN_POINT ( 'NONE',  ( 5.978996869954353449E-15, -2.097149796403541723E-16, 1.712452764228558744 ) ) ;
#170 = ADVANCED_FACE ( 'NONE', ( #305 ), #237, .T. ) ;
#171 = DIRECTION ( 'NONE',  ( -3.491481338843133355E-15, 1.224646799147353207E-16, -1.000000000000000000 ) ) ;
#172 = VECTOR ( 'NONE', #285, 999.9999999999998863 ) ;
#173 = PERSON_AND_ORGANIZATION ( #251, #71 ) ;
#174 = EDGE_CURVE ( 'NONE', #316, #50, #157, .T. ) ;
#175 = LINE ( 'NONE', #331, #318 ) ;
#176 = CARTESIAN_POINT ( 'NONE',  ( 3.226128757091054968E-13, 2.849999999999988987, 92.39999999999999147 ) ) ;
#177 = CC_DESIGN_APPROVAL ( #306, ( #196 ) ) ;
#178 = DIRECTION ( 'NONE',  ( 4.275831445896958607E-31, 1.000000000000000000, 1.224646799147353207E-16 ) ) ;
#179 = CIRCLE ( 'NONE', #94, 2.250000000000000444 ) ;
#180 = APPROVAL_PERSON_ORGANIZATION ( #257, #306, #231 ) ;
#181 = SECURITY_CLASSIFICATION_LEVEL ( 'unclassified' ) ;
#182 = EDGE_CURVE ( 'NONE', #239, #316, #324, .T. ) ;
#183 = ORIENTED_EDGE ( 'NONE', *, *, #86, .F. ) ;
#184 = EDGE_LOOP ( 'NONE', ( #159, #234, #152, #79 ) ) ;
#185 = ORIENTED_EDGE ( 'NONE', *, *, #4, .T. ) ;
#186 = LOCAL_TIME ( 15, 38, 7.000000000000000000, #204 ) ;
#187 = ORIENTED_EDGE ( 'NONE', *, *, #115, .F. ) ;
#188 = DIRECTION ( 'NONE',  ( 4.275831445896958607E-31, 1.000000000000000000, 1.224646799147353207E-16 ) ) ;
#189 = DIRECTION ( 'NONE',  ( -3.491481338843133355E-15, 1.224646799147353207E-16, -1.000000000000000000 ) ) ;
#190 = DESIGN_CONTEXT ( 'detailed design', #222, 'design' ) ;
#191 = DIRECTION ( 'NONE',  ( 0.0000000000000000000, 0.0000000000000000000, 1.000000000000000000 ) ) ;
#192 = DIRECTION ( 'NONE',  ( 5.406119142139629940E-31, 1.000000000000000000, 1.521687259628783931E-16 ) ) ;
#193 = AXIS2_PLACEMENT_3D ( 'NONE', #101, #207, #273 ) ;
#194 = DIRECTION ( 'NONE',  ( -3.491481338843133355E-15, 1.224646799147353207E-16, -1.000000000000000000 ) ) ;
#195 = DIRECTION ( 'NONE',  ( 0.0000000000000000000, 1.000000000000000000, 0.0000000000000000000 ) ) ;
#196 = PRODUCT_DEFINITION_FORMATION_WITH_SPECIFIED_SOURCE ( 'ANY', '', #131, .NOT_KNOWN. ) ;
#197 = CC_DESIGN_APPROVAL ( #248, ( #135 ) ) ;
#198 = CARTESIAN_POINT ( 'NONE',  ( 2.611626803493389533E-13, -2.850000000000011191, 92.39999999999999147 ) ) ;
#199 = CARTESIAN_POINT ( 'NONE',  ( 5.978996869954353449E-15, -2.097149796403541723E-16, 1.712452764228558744 ) ) ;
#200 = FACE_OUTER_BOUND ( 'NONE', #7, .T. ) ;
#201 = APPROVAL_STATUS ( 'not_yet_approved' ) ;
#202 = LOCAL_TIME ( 15, 38, 7.000000000000000000, #264 ) ;
#203 = EDGE_CURVE ( 'NONE', #5, #317, #10, .T. ) ;
#204 = COORDINATED_UNIVERSAL_TIME_OFFSET ( 1, 0, .AHEAD. ) ;
#205 = PRODUCT_RELATED_PRODUCT_CATEGORY ( 'detail', '', ( #131 ) ) ;
#206 = AXIS2_PLACEMENT_3D ( 'NONE', #140, #66, #247 ) ;
#207 = DIRECTION ( 'NONE',  ( -3.491481338843133355E-15, 1.224646799147353207E-16, -1.000000000000000000 ) ) ;
#208 = CALENDAR_DATE ( 2021, 2, 9 ) ;
#209 = DIRECTION ( 'NONE',  ( 4.275831445896958607E-31, 1.000000000000000000, 1.224646799147353207E-16 ) ) ;
#210 = ORIENTED_EDGE ( 'NONE', *, *, #284, .F. ) ;
#211 = FACE_OUTER_BOUND ( 'NONE', #30, .T. ) ;
#212 = ORIENTED_EDGE ( 'NONE', *, *, #320, .F. ) ;
#213 = CARTESIAN_POINT ( 'NONE',  ( 1.028457409297632345E-13, -2.850000000000002753, 57.00000000000000000 ) ) ;
#214 = DIRECTION ( 'NONE',  ( -3.491481338843133355E-15, 1.224646799147353207E-16, -1.000000000000000000 ) ) ;
#215 = EDGE_LOOP ( 'NONE', ( #3, #241, #210, #246 ) ) ;
#216 = DIRECTION ( 'NONE',  ( -2.382254525458723780E-15, -0.7071067811865453523, -0.7071067811865496822 ) ) ;
#217 = DIRECTION ( 'NONE',  ( 0.0000000000000000000, 1.000000000000000000, 0.0000000000000000000 ) ) ;
#218 = LINE ( 'NONE', #326, #62 ) ;
#219 = CIRCLE ( 'NONE', #118, 2.849999999999988987 ) ;
#220 = AXIS2_PLACEMENT_3D ( 'NONE', #56, #154, #209 ) ;
#221 = DIRECTION ( 'NONE',  ( 3.491481338843133355E-15, -1.224646799147353207E-16, 1.000000000000000000 ) ) ;
#222 = APPLICATION_CONTEXT ( 'configuration controlled 3d designs of mechanical parts and assemblies' ) ;
#223 = CARTESIAN_POINT ( 'NONE',  ( 1.990144363140586139E-13, -6.980486755139912911E-15, 57.00000000000000000 ) ) ;
#224 = EDGE_CURVE ( 'NONE', #317, #75, #219, .T. ) ;
#225 = DIRECTION ( 'NONE',  ( -5.406119142139629940E-31, -1.000000000000000000, -1.521687259628783931E-16 ) ) ;
#226 = PERSON_AND_ORGANIZATION ( #251, #71 ) ;
#227 = LOCAL_TIME ( 15, 38, 7.000000000000000000, #288 ) ;
#228 = VECTOR ( 'NONE', #35, 1000.000000000000114 ) ;
#229 = DIRECTION ( 'NONE',  ( -3.491481338843133355E-15, 1.224646799147353207E-16, -1.000000000000000000 ) ) ;
#230 = PLANE ( 'NONE',  #303 ) ;
#231 = APPROVAL_ROLE ( '' ) ;
#232 = ORIENTED_EDGE ( 'NONE', *, *, #36, .T. ) ;
#233 = EDGE_CURVE ( 'NONE', #136, #75, #218, .T. ) ;
#234 = ORIENTED_EDGE ( 'NONE', *, *, #314, .T. ) ;
#235 = CALENDAR_DATE ( 2021, 2, 9 ) ;
#236 = ORIENTED_EDGE ( 'NONE', *, *, #284, .T. ) ;
#237 = CONICAL_SURFACE ( 'NONE', #206, 2.849999999999988987, 1.029744258676649649 ) ;
#238 = AXIS2_PLACEMENT_3D ( 'NONE', #18, #171, #333 ) ;
#239 = VERTEX_POINT ( 'NONE', #198 ) ;
#240 = DATE_AND_TIME ( #129, #112 ) ;
#241 = ORIENTED_EDGE ( 'NONE', *, *, #182, .T. ) ;
#242 = ORIENTED_EDGE ( 'NONE', *, *, #203, .F. ) ;
#243 = CC_DESIGN_PERSON_AND_ORGANIZATION_ASSIGNMENT ( #259, #19, ( #196 ) ) ;
#244 = CARTESIAN_POINT ( 'NONE',  ( 0.0000000000000000000, 0.0000000000000000000, 0.0000000000000000000 ) ) ;
#245 = CC_DESIGN_APPROVAL ( #276, ( #100 ) ) ;
#246 = ORIENTED_EDGE ( 'NONE', *, *, #39, .F. ) ;
#247 = DIRECTION ( 'NONE',  ( -5.406119142139629940E-31, -1.000000000000000000, -1.521687259628783931E-16 ) ) ;
#248 = APPROVAL ( #95, 'UNSPECIFIED' ) ;
#249 = MANIFOLD_SOLID_BREP ( 'Corps-Déplacer/Copier1[2]', #32 ) ;
#250 = CARTESIAN_POINT ( 'NONE',  ( 3.247077645124113894E-13, -1.138921523207038456E-14, 93.00000000000000000 ) ) ;
#251 = PERSON ( 'UNSPECIFIED', 'UNSPECIFIED', 'UNSPECIFIED', ('UNSPECIFIED'), ('UNSPECIFIED'), ('UNSPECIFIED') ) ;
#252 = DIRECTION ( 'NONE',  ( 0.0000000000000000000, 1.000000000000000000, 0.0000000000000000000 ) ) ;
#253 = CARTESIAN_POINT ( 'NONE',  ( 3.247077645124113894E-13, -1.138921523207038456E-14, 93.00000000000000000 ) ) ;
#254 = DIRECTION ( 'NONE',  ( -3.491481338843133355E-15, 1.224646799147353207E-16, -1.000000000000000000 ) ) ;
#255 = VECTOR ( 'NONE', #216, 1000.000000000000000 ) ;
#256 = CIRCLE ( 'NONE', #78, 2.850000000000000089 ) ;
#257 = PERSON_AND_ORGANIZATION ( #251, #71 ) ;
#258 = DIRECTION ( 'NONE',  ( -3.491481338843133355E-15, 1.224646799147353207E-16, -1.000000000000000000 ) ) ;
#259 = PERSON_AND_ORGANIZATION ( #251, #71 ) ;
#260 = APPLICATION_CONTEXT ( 'configuration controlled 3d designs of mechanical parts and assemblies' ) ;
#261 = PERSON_AND_ORGANIZATION ( #251, #71 ) ;
#262 =( GEOMETRIC_REPRESENTATION_CONTEXT ( 3 ) GLOBAL_UNCERTAINTY_ASSIGNED_CONTEXT ( ( #168 ) ) GLOBAL_UNIT_ASSIGNED_CONTEXT ( ( #40, #301, #323 ) ) REPRESENTATION_CONTEXT ( 'NONE', 'WORKASPACE' ) );
#263 = CC_DESIGN_PERSON_AND_ORGANIZATION_ASSIGNMENT ( #310, #51, ( #135 ) ) ;
#264 = COORDINATED_UNIVERSAL_TIME_OFFSET ( 1, 0, .AHEAD. ) ;
#265 = ORIENTED_EDGE ( 'NONE', *, *, #272, .T. ) ;
#266 = PERSON_AND_ORGANIZATION ( #251, #71 ) ;
#267 = ORIENTED_EDGE ( 'NONE', *, *, #224, .F. ) ;
#268 = COORDINATED_UNIVERSAL_TIME_OFFSET ( 1, 0, .AHEAD. ) ;
#269 = AXIS2_PLACEMENT_3D ( 'NONE', #65, #9, #217 ) ;
#270 = CONICAL_SURFACE ( 'NONE', #48, 2.250000000000000444, 0.7853981633974453924 ) ;
#271 = ORIENTED_EDGE ( 'NONE', *, *, #115, .T. ) ;
#272 = EDGE_CURVE ( 'NONE', #5, #75, #332, .T. ) ;
#273 = DIRECTION ( 'NONE',  ( 0.0000000000000000000, 1.000000000000000000, 0.0000000000000000000 ) ) ;
#274 = ORIENTED_EDGE ( 'NONE', *, *, #150, .T. ) ;
#275 = CARTESIAN_POINT ( 'NONE',  ( 3.247077645124113894E-13, 2.249999999999988898, 93.00000000000000000 ) ) ;
#276 = APPROVAL ( #156, 'UNSPECIFIED' ) ;
#277 = DIRECTION ( 'NONE',  ( -3.491481338843133355E-15, 1.224646799147353207E-16, -1.000000000000000000 ) ) ;
#278 = CARTESIAN_POINT ( 'NONE',  ( 0.0000000000000000000, 0.0000000000000000000, 0.0000000000000000000 ) ) ;
#279 = CARTESIAN_POINT ( 'NONE',  ( 3.247077645124113894E-13, 2.249999999999988898, 93.00000000000000000 ) ) ;
#280 = CARTESIAN_POINT ( 'NONE',  ( 1.990144363140586139E-13, 2.137157690293133680E-32, 57.00000000000000000 ) ) ;
#281 = CARTESIAN_POINT ( 'NONE',  ( 3.490243377569942256E-16, -2.849999999999997868, -3.490243377569965922E-16 ) ) ;
#282 = CARTESIAN_POINT ( 'NONE',  ( 6.328021207711349253E-15, 2.849999999999988987, 1.712452764228559188 ) ) ;
#283 = CARTESIAN_POINT ( 'NONE',  ( 1.990144363140586139E-13, -6.980486755139912911E-15, 57.00000000000000000 ) ) ;
#284 = EDGE_CURVE ( 'NONE', #50, #316, #165, .T. ) ;
#285 = DIRECTION ( 'NONE',  ( 1.903218546456022717E-15, 0.8571673007021097801, 0.5150380749100585964 ) ) ;
#286 = CLOSED_SHELL ( 'NONE', ( #72, #11, #57, #298, #161, #122 ) ) ;
#287 = FACE_OUTER_BOUND ( 'NONE', #162, .T. ) ;
#288 = COORDINATED_UNIVERSAL_TIME_OFFSET ( 1, 0, .AHEAD. ) ;
#289 = ADVANCED_FACE ( 'NONE', ( #109 ), #84, .T. ) ;
#290 = AXIS2_PLACEMENT_3D ( 'NONE', #280, #13, #304 ) ;
#291 = ADVANCED_BREP_SHAPE_REPRESENTATION ( '53760', ( #15, #249, #25 ), #262 ) ;
#292 = DIRECTION ( 'NONE',  ( 5.406119142139629940E-31, 1.000000000000000000, 1.521687259628783931E-16 ) ) ;
#293 = CARTESIAN_POINT ( 'NONE',  ( 3.247077645124113894E-13, -1.138921523207038456E-14, 93.00000000000000000 ) ) ;
#294 = ORIENTED_EDGE ( 'NONE', *, *, #314, .F. ) ;
#295 = EDGE_LOOP ( 'NONE', ( #126, #59, #2 ) ) ;
#296 = ORIENTED_EDGE ( 'NONE', *, *, #150, .F. ) ;
#297 = VERTEX_POINT ( 'NONE', #299 ) ;
#298 = ADVANCED_FACE ( 'NONE', ( #8 ), #163, .T. ) ;
#299 = CARTESIAN_POINT ( 'NONE',  ( 3.239726050445409912E-13, -2.250000000000011546, 93.00000000000000000 ) ) ;
#300 = PLANE ( 'NONE',  #137 ) ;
#301 =( NAMED_UNIT ( * ) PLANE_ANGLE_UNIT ( ) SI_UNIT ( $, .RADIAN. ) );
#302 = APPROVAL_PERSON_ORGANIZATION ( #226, #248, #41 ) ;
#303 = AXIS2_PLACEMENT_3D ( 'NONE', #309, #221, #141 ) ;
#304 = DIRECTION ( 'NONE',  ( -4.275831445896958607E-31, -1.000000000000000000, -1.224646799147353207E-16 ) ) ;
#305 = FACE_OUTER_BOUND ( 'NONE', #124, .T. ) ;
#306 = APPROVAL ( #201, 'UNSPECIFIED' ) ;
#307 = AXIS2_PLACEMENT_3D ( 'NONE', #69, #229, #188 ) ;
#308 = CC_DESIGN_PERSON_AND_ORGANIZATION_ASSIGNMENT ( #173, #117, ( #131 ) ) ;
#309 = CARTESIAN_POINT ( 'NONE',  ( 1.990144363140586139E-13, 2.137157690293133680E-32, 57.00000000000000000 ) ) ;
#310 = PERSON_AND_ORGANIZATION ( #251, #71 ) ;
#311 = PERSON_AND_ORGANIZATION ( #251, #71 ) ;
#312 = CONICAL_SURFACE ( 'NONE', #6, 2.849999999999988987, 1.029744258676649649 ) ;
#313 = LINE ( 'NONE', #27, #325 ) ;
#314 = EDGE_CURVE ( 'NONE', #29, #317, #175, .T. ) ;
#315 = ORIENTED_EDGE ( 'NONE', *, *, #182, .F. ) ;
#316 = VERTEX_POINT ( 'NONE', #119 ) ;
#317 = VERTEX_POINT ( 'NONE', #60 ) ;
#318 = VECTOR ( 'NONE', #254, 1000.000000000000000 ) ;
#319 = VERTEX_POINT ( 'NONE', #176 ) ;
#320 = EDGE_CURVE ( 'NONE', #297, #239, #68, .T. ) ;
#321 = MECHANICAL_CONTEXT ( 'NONE', #260, 'mechanical' ) ;
#322 = VERTEX_POINT ( 'NONE', #275 ) ;
#323 =( NAMED_UNIT ( * ) SI_UNIT ( $, .STERADIAN. ) SOLID_ANGLE_UNIT ( ) );
#324 = LINE ( 'NONE', #281, #123 ) ;
#325 = VECTOR ( 'NONE', #132, 1000.000000000000000 ) ;
#326 = CARTESIAN_POINT ( 'NONE',  ( 1.218611962080629936E-30, 2.849999999999992095, 3.490243377569947186E-16 ) ) ;
#327 = CARTESIAN_POINT ( 'NONE',  ( 1.990144363140586139E-13, 2.849999999999988987, 57.00000000000000000 ) ) ;
#328 = DIRECTION ( 'NONE',  ( -3.491481338843133355E-15, 1.224646799147353207E-16, -1.000000000000000000 ) ) ;
#329 = DIRECTION ( 'NONE',  ( 3.491481338843133355E-15, -1.224646799147353207E-16, 1.000000000000000000 ) ) ;
#330 = LOCAL_TIME ( 15, 38, 7.000000000000000000, #99 ) ;
#331 = CARTESIAN_POINT ( 'NONE',  ( 3.490243377569934860E-16, -2.849999999999992095, -3.490243377569959019E-16 ) ) ;
#332 = LINE ( 'NONE', #282, #172 ) ;
#333 = DIRECTION ( 'NONE',  ( 0.0000000000000000000, 1.000000000000000000, 0.0000000000000000000 ) ) ;
#334 = AXIS2_PLACEMENT_3D ( 'NONE', #164, #277, #195 ) ;
#335 = EDGE_LOOP ( 'NONE', ( #212, #23, #274, #1 ) ) ;
#336 = DATE_AND_TIME ( #121, #330 ) ;
#337 = ADVANCED_FACE ( 'NONE', ( #96 ), #312, .T. ) ;
ENDSEC;
END-ISO-10303-21;
