ISO-10303-21;
HEADER;
FILE_DESCRIPTION (( 'STEP AP203' ),
    '1' );
FILE_NAME ('53759.step',
    '2021-09-02T13:38:07',
    ( '' ),
    ( '' ),
    'SwSTEP 2.0',
    'SolidWorks 2019',
    '' );
FILE_SCHEMA (( 'CONFIG_CONTROL_DESIGN' ));
ENDSEC;

DATA;
#1 = AXIS2_PLACEMENT_3D ( 'NONE', #180, #201, #253 ) ;
#2 = COORDINATED_UNIVERSAL_TIME_OFFSET ( 1, 0, .AHEAD. ) ;
#3 = DATE_AND_TIME ( #235, #189 ) ;
#4 = CARTESIAN_POINT ( 'NONE',  ( 5.874102188025327463E-15, -2.799999999999988720, 1.682409733277180131 ) ) ;
#5 =( NAMED_UNIT ( * ) SI_UNIT ( $, .STERADIAN. ) SOLID_ANGLE_UNIT ( ) );
#6 = DATE_AND_TIME ( #213, #233 ) ;
#7 = CARTESIAN_POINT ( 'NONE',  ( 1.197232804851147499E-30, 2.799999999999997602, 3.429011037612586318E-16 ) ) ;
#8 = ADVANCED_FACE ( 'NONE', ( #248 ), #333, .T. ) ;
#9 = DIRECTION ( 'NONE',  ( 1.903218546456022717E-15, 0.8571673007021097801, 0.5150380749100585964 ) ) ;
#10 = CONICAL_SURFACE ( 'NONE', #218, 2.200000000000000178, 0.7853981633974453924 ) ;
#11 = CARTESIAN_POINT ( 'NONE',  ( 5.874102188025327463E-15, -2.799999999999988720, 1.682409733277180131 ) ) ;
#12 = CARTESIAN_POINT ( 'NONE',  ( 1.990144363140586139E-13, -6.980486755139912911E-15, 57.00000000000000000 ) ) ;
#13 = FACE_OUTER_BOUND ( 'NONE', #204, .T. ) ;
#14 = EDGE_CURVE ( 'NONE', #60, #20, #199, .T. ) ;
#15 = APPLICATION_CONTEXT ( 'configuration controlled 3d designs of mechanical parts and assemblies' ) ;
#16 = CIRCLE ( 'NONE', #155, 2.799999999999988720 ) ;
#17 = DIRECTION ( 'NONE',  ( -2.468850131082271655E-15, 0.7071067811865455743, -0.7071067811865493491 ) ) ;
#18 = ORIENTED_EDGE ( 'NONE', *, *, #287, .T. ) ;
#19 = CARTESIAN_POINT ( 'NONE',  ( 1.990144363140586139E-13, -6.980486755139912911E-15, 57.00000000000000000 ) ) ;
#20 = VERTEX_POINT ( 'NONE', #38 ) ;
#21 = VERTEX_POINT ( 'NONE', #244 ) ;
#22 = CARTESIAN_POINT ( 'NONE',  ( 0.0000000000000000000, 0.0000000000000000000, 0.0000000000000000000 ) ) ;
#23 = VECTOR ( 'NONE', #317, 1000.000000000000000 ) ;
#24 = CYLINDRICAL_SURFACE ( 'NONE', #80, 2.799999999999992273 ) ;
#25 = VERTEX_POINT ( 'NONE', #94 ) ;
#26 = APPLICATION_PROTOCOL_DEFINITION ( 'international standard', 'config_control_design', 1994, #15 ) ;
#27 = ORIENTED_EDGE ( 'NONE', *, *, #293, .F. ) ;
#28 = CC_DESIGN_APPROVAL ( #262, ( #55 ) ) ;
#29 = AXIS2_PLACEMENT_3D ( 'NONE', #303, #152, #96 ) ;
#30 = COORDINATED_UNIVERSAL_TIME_OFFSET ( 1, 0, .AHEAD. ) ;
#31 = PERSON_AND_ORGANIZATION_ROLE ( 'design_supplier' ) ;
#32 = AXIS2_PLACEMENT_3D ( 'NONE', #327, #195, #194 ) ;
#33 = ADVANCED_FACE ( 'NONE', ( #65 ), #45, .T. ) ;
#34 = DIRECTION ( 'NONE',  ( 4.275831445896958607E-31, 1.000000000000000000, 1.224646799147353207E-16 ) ) ;
#35 = EDGE_CURVE ( 'NONE', #251, #234, #227, .T. ) ;
#36 = DIRECTION ( 'NONE',  ( 0.0000000000000000000, 1.000000000000000000, 0.0000000000000000000 ) ) ;
#37 = CARTESIAN_POINT ( 'NONE',  ( 3.226128757091054968E-13, -1.131573642412154441E-14, 92.39999999999999147 ) ) ;
#38 = CARTESIAN_POINT ( 'NONE',  ( 3.239664818105452936E-13, -2.200000000000011280, 93.00000000000000000 ) ) ;
#39 = CC_DESIGN_APPROVAL ( #83, ( #71 ) ) ;
#40 = DIRECTION ( 'NONE',  ( -3.491481338843133355E-15, 1.224646799147353207E-16, -1.000000000000000000 ) ) ;
#41 = DIRECTION ( 'NONE',  ( -3.491481338843133355E-15, 1.224646799147353207E-16, -1.000000000000000000 ) ) ;
#42 = ORIENTED_EDGE ( 'NONE', *, *, #124, .T. ) ;
#43 = ADVANCED_FACE ( 'NONE', ( #150 ), #24, .T. ) ;
#44 = CARTESIAN_POINT ( 'NONE',  ( 3.429011037612574485E-16, -2.799999999999997602, -3.429011037612598151E-16 ) ) ;
#45 = CYLINDRICAL_SURFACE ( 'NONE', #138, 2.799999999999997602 ) ;
#46 = CARTESIAN_POINT ( 'NONE',  ( 6.217003291786587771E-15, 2.799999999999988720, 1.682409733277180797 ) ) ;
#47 = CC_DESIGN_APPROVAL ( #121, ( #324 ) ) ;
#48 = AXIS2_PLACEMENT_3D ( 'NONE', #295, #307, #59 ) ;
#49 = ORIENTED_EDGE ( 'NONE', *, *, #270, .F. ) ;
#50 = EDGE_LOOP ( 'NONE', ( #181, #208, #223, #196 ) ) ;
#51 = PERSON_AND_ORGANIZATION_ROLE ( 'creator' ) ;
#52 = VECTOR ( 'NONE', #291, 1000.000000000000000 ) ;
#53 = CC_DESIGN_DATE_AND_TIME_ASSIGNMENT ( #6, #81, ( #55 ) ) ;
#54 = APPROVAL_STATUS ( 'not_yet_approved' ) ;
#55 = SECURITY_CLASSIFICATION ( '', '', #95 ) ;
#56 = CC_DESIGN_PERSON_AND_ORGANIZATION_ASSIGNMENT ( #236, #316, ( #71 ) ) ;
#57 = ADVANCED_FACE ( 'NONE', ( #308 ), #10, .T. ) ;
#58 = CONICAL_SURFACE ( 'NONE', #255, 2.799999999999988720, 1.029744258676649649 ) ;
#59 = DIRECTION ( 'NONE',  ( 4.275831445896958607E-31, 1.000000000000000000, 1.224646799147353207E-16 ) ) ;
#60 = VERTEX_POINT ( 'NONE', #299 ) ;
#61 = CARTESIAN_POINT ( 'NONE',  ( 2.611565571153432557E-13, -2.800000000000002487, 57.00000000000000000 ) ) ;
#62 = CC_DESIGN_PERSON_AND_ORGANIZATION_ASSIGNMENT ( #156, #264, ( #153 ) ) ;
#63 = VERTEX_POINT ( 'NONE', #46 ) ;
#64 = DIRECTION ( 'NONE',  ( 4.275831445896958607E-31, 1.000000000000000000, 1.224646799147353207E-16 ) ) ;
#65 = FACE_OUTER_BOUND ( 'NONE', #50, .T. ) ;
#66 = EDGE_LOOP ( 'NONE', ( #256, #42, #49, #144 ) ) ;
#67 = DIRECTION ( 'NONE',  ( -3.491481338843133355E-15, 1.224646799147353207E-16, -1.000000000000000000 ) ) ;
#68 = APPLICATION_CONTEXT ( 'configuration controlled 3d designs of mechanical parts and assemblies' ) ;
#69 = FACE_OUTER_BOUND ( 'NONE', #245, .T. ) ;
#70 = ORIENTED_EDGE ( 'NONE', *, *, #287, .F. ) ;
#71 = PRODUCT_DEFINITION_FORMATION_WITH_SPECIFIED_SOURCE ( 'ANY', '', #153, .NOT_KNOWN. ) ;
#72 = ADVANCED_FACE ( 'NONE', ( #13 ), #170, .T. ) ;
#73 = DATE_TIME_ROLE ( 'creation_date' ) ;
#74 = AXIS2_PLACEMENT_3D ( 'NONE', #12, #171, #330 ) ;
#75 = COORDINATED_UNIVERSAL_TIME_OFFSET ( 1, 0, .AHEAD. ) ;
#76 = CARTESIAN_POINT ( 'NONE',  ( 1.027871703548029920E-13, -2.800000000000002487, 57.00000000000000000 ) ) ;
#77 = APPROVAL_DATE_TIME ( #3, #83 ) ;
#78 = EDGE_CURVE ( 'NONE', #25, #147, #190, .T. ) ;
#79 = LINE ( 'NONE', #315, #161 ) ;
#80 = AXIS2_PLACEMENT_3D ( 'NONE', #22, #122, #228 ) ;
#81 = DATE_TIME_ROLE ( 'classification_date' ) ;
#82 = ORIENTED_EDGE ( 'NONE', *, *, #231, .F. ) ;
#83 = APPROVAL ( #205, 'UNSPECIFIED' ) ;
#84 = ADVANCED_BREP_SHAPE_REPRESENTATION ( '53759', ( #242, #241, #109 ), #130 ) ;
#85 = DIRECTION ( 'NONE',  ( -3.491481338843133355E-15, 1.224646799147353207E-16, -1.000000000000000000 ) ) ;
#86 = AXIS2_PLACEMENT_3D ( 'NONE', #300, #302, #34 ) ;
#87 = VECTOR ( 'NONE', #85, 1000.000000000000000 ) ;
#88 = DIRECTION ( 'NONE',  ( -4.275831445896958607E-31, -1.000000000000000000, -1.224646799147353207E-16 ) ) ;
#89 = ORIENTED_EDGE ( 'NONE', *, *, #78, .F. ) ;
#90 = DIRECTION ( 'NONE',  ( 0.0000000000000000000, 1.000000000000000000, 0.0000000000000000000 ) ) ;
#91 = ORIENTED_EDGE ( 'NONE', *, *, #137, .T. ) ;
#92 = LINE ( 'NONE', #140, #239 ) ;
#93 = ORIENTED_EDGE ( 'NONE', *, *, #101, .T. ) ;
#94 = CARTESIAN_POINT ( 'NONE',  ( 1.990144363140586139E-13, 2.799999999999988720, 57.00000000000000000 ) ) ;
#95 = SECURITY_CLASSIFICATION_LEVEL ( 'unclassified' ) ;
#96 = DIRECTION ( 'NONE',  ( 0.0000000000000000000, 1.000000000000000000, 0.0000000000000000000 ) ) ;
#97 = ADVANCED_FACE ( 'NONE', ( #69 ), #106, .T. ) ;
#98 = DATE_AND_TIME ( #103, #166 ) ;
#99 = EDGE_LOOP ( 'NONE', ( #89, #82 ) ) ;
#100 = PERSON_AND_ORGANIZATION ( #139, #160 ) ;
#101 = EDGE_CURVE ( 'NONE', #157, #63, #263, .T. ) ;
#102 = APPROVAL_DATE_TIME ( #131, #262 ) ;
#103 = CALENDAR_DATE ( 2021, 2, 9 ) ;
#104 = CARTESIAN_POINT ( 'NONE',  ( 3.226128757091054968E-13, -1.131573642412154441E-14, 92.39999999999999147 ) ) ;
#105 = ORIENTED_EDGE ( 'NONE', *, *, #165, .T. ) ;
#106 = CONICAL_SURFACE ( 'NONE', #32, 2.200000000000000178, 0.7853981633974453924 ) ;
#107 = AXIS2_PLACEMENT_3D ( 'NONE', #328, #40, #64 ) ;
#108 = LINE ( 'NONE', #219, #154 ) ;
#109 = AXIS2_PLACEMENT_3D ( 'NONE', #257, #127, #135 ) ;
#110 = CIRCLE ( 'NONE', #169, 2.799999999999999822 ) ;
#111 = CC_DESIGN_DATE_AND_TIME_ASSIGNMENT ( #128, #73, ( #324 ) ) ;
#112 = DIRECTION ( 'NONE',  ( 0.0000000000000000000, 1.000000000000000000, 0.0000000000000000000 ) ) ;
#113 = EDGE_LOOP ( 'NONE', ( #119, #105, #27, #70 ) ) ;
#114 = ORIENTED_EDGE ( 'NONE', *, *, #240, .T. ) ;
#115 = CC_DESIGN_PERSON_AND_ORGANIZATION_ASSIGNMENT ( #312, #31, ( #71 ) ) ;
#116 = ORIENTED_EDGE ( 'NONE', *, *, #148, .T. ) ;
#117 = DIRECTION ( 'NONE',  ( 0.0000000000000000000, 1.000000000000000000, 0.0000000000000000000 ) ) ;
#118 = ORIENTED_EDGE ( 'NONE', *, *, #270, .T. ) ;
#119 = ORIENTED_EDGE ( 'NONE', *, *, #14, .T. ) ;
#120 = CARTESIAN_POINT ( 'NONE',  ( 1.990144363140586139E-13, 2.799999999999988720, 57.00000000000000000 ) ) ;
#121 = APPROVAL ( #54, 'UNSPECIFIED' ) ;
#122 = DIRECTION ( 'NONE',  ( -3.491481338843133355E-15, 1.224646799147353207E-16, -1.000000000000000000 ) ) ;
#123 = AXIS2_PLACEMENT_3D ( 'NONE', #271, #311, #329 ) ;
#124 = EDGE_CURVE ( 'NONE', #147, #157, #175, .T. ) ;
#125 = ORIENTED_EDGE ( 'NONE', *, *, #184, .F. ) ;
#126 = ORIENTED_EDGE ( 'NONE', *, *, #35, .T. ) ;
#127 = DIRECTION ( 'NONE',  ( 0.0000000000000000000, 0.0000000000000000000, 1.000000000000000000 ) ) ;
#128 = DATE_AND_TIME ( #259, #217 ) ;
#129 = ORIENTED_EDGE ( 'NONE', *, *, #168, .F. ) ;
#130 =( GEOMETRIC_REPRESENTATION_CONTEXT ( 3 ) GLOBAL_UNCERTAINTY_ASSIGNED_CONTEXT ( ( #267 ) ) GLOBAL_UNIT_ASSIGNED_CONTEXT ( ( #269, #281, #5 ) ) REPRESENTATION_CONTEXT ( 'NONE', 'WORKASPACE' ) );
#131 = DATE_AND_TIME ( #320, #260 ) ;
#132 = PERSON_AND_ORGANIZATION ( #139, #160 ) ;
#133 = PRODUCT_DEFINITION_SHAPE ( 'NONE', 'NONE',  #324 ) ;
#134 = APPROVAL_STATUS ( 'not_yet_approved' ) ;
#135 = DIRECTION ( 'NONE',  ( 1.000000000000000000, 0.0000000000000000000, 0.0000000000000000000 ) ) ;
#136 = CIRCLE ( 'NONE', #325, 2.799999999999995826 ) ;
#137 = EDGE_CURVE ( 'NONE', #254, #234, #282, .T. ) ;
#138 = AXIS2_PLACEMENT_3D ( 'NONE', #225, #203, #280 ) ;
#139 = PERSON ( 'UNSPECIFIED', 'UNSPECIFIED', 'UNSPECIFIED', ('UNSPECIFIED'), ('UNSPECIFIED'), ('UNSPECIFIED') ) ;
#140 = CARTESIAN_POINT ( 'NONE',  ( 3.247077645124113894E-13, 2.199999999999989075, 93.00000000000000000 ) ) ;
#141 = CARTESIAN_POINT ( 'NONE',  ( 1.990144363140586139E-13, -6.980486755139912911E-15, 57.00000000000000000 ) ) ;
#142 = FACE_OUTER_BOUND ( 'NONE', #288, .T. ) ;
#143 = EDGE_LOOP ( 'NONE', ( #336, #164, #309, #249 ) ) ;
#144 = ORIENTED_EDGE ( 'NONE', *, *, #186, .F. ) ;
#145 = DIRECTION ( 'NONE',  ( 3.491481338843133355E-15, -1.224646799147353207E-16, 1.000000000000000000 ) ) ;
#146 = CARTESIAN_POINT ( 'NONE',  ( 3.247077645124113894E-13, -1.138921523207038456E-14, 93.00000000000000000 ) ) ;
#147 = VERTEX_POINT ( 'NONE', #76 ) ;
#148 = EDGE_CURVE ( 'NONE', #21, #254, #110, .T. ) ;
#149 = DIRECTION ( 'NONE',  ( 3.491481338843133355E-15, -1.224646799147353207E-16, 1.000000000000000000 ) ) ;
#150 = FACE_OUTER_BOUND ( 'NONE', #143, .T. ) ;
#151 = VERTEX_POINT ( 'NONE', #261 ) ;
#152 = DIRECTION ( 'NONE',  ( -3.491481338843133355E-15, 1.224646799147353207E-16, -1.000000000000000000 ) ) ;
#153 = PRODUCT ( '53759', '53759', '', ( #185 ) ) ;
#154 = VECTOR ( 'NONE', #322, 1000.000000000000000 ) ;
#155 = AXIS2_PLACEMENT_3D ( 'NONE', #298, #268, #178 ) ;
#156 = PERSON_AND_ORGANIZATION ( #139, #160 ) ;
#157 = VERTEX_POINT ( 'NONE', #4 ) ;
#158 = ORIENTED_EDGE ( 'NONE', *, *, #168, .T. ) ;
#159 = DIRECTION ( 'NONE',  ( 0.0000000000000000000, 1.000000000000000000, 0.0000000000000000000 ) ) ;
#160 = ORGANIZATION ( 'UNSPECIFIED', 'UNSPECIFIED', '' ) ;
#161 = VECTOR ( 'NONE', #9, 999.9999999999998863 ) ;
#162 = PRODUCT_RELATED_PRODUCT_CATEGORY ( 'detail', '', ( #153 ) ) ;
#163 = APPROVAL_ROLE ( '' ) ;
#164 = ORIENTED_EDGE ( 'NONE', *, *, #231, .T. ) ;
#165 = EDGE_CURVE ( 'NONE', #20, #21, #285, .T. ) ;
#166 = LOCAL_TIME ( 15, 38, 7.000000000000000000, #75 ) ;
#167 = AXIS2_PLACEMENT_3D ( 'NONE', #273, #247, #117 ) ;
#168 = EDGE_CURVE ( 'NONE', #151, #63, #79, .T. ) ;
#169 = AXIS2_PLACEMENT_3D ( 'NONE', #104, #283, #159 ) ;
#170 = CONICAL_SURFACE ( 'NONE', #123, 2.799999999999988720, 1.029744258676649649 ) ;
#171 = DIRECTION ( 'NONE',  ( -3.491481338843133355E-15, 1.224646799147353207E-16, -1.000000000000000000 ) ) ;
#172 = PLANE ( 'NONE',  #215 ) ;
#173 = CARTESIAN_POINT ( 'NONE',  ( 5.874102188025329040E-15, -2.060357694712251189E-16, 1.682409733277180353 ) ) ;
#174 = CARTESIAN_POINT ( 'NONE',  ( 5.874102188025329040E-15, -2.060357694712251189E-16, 1.682409733277180353 ) ) ;
#175 = LINE ( 'NONE', #274, #294 ) ;
#176 = LINE ( 'NONE', #44, #87 ) ;
#177 = EDGE_LOOP ( 'NONE', ( #250, #214 ) ) ;
#178 = DIRECTION ( 'NONE',  ( 5.502656983963553279E-31, 1.000000000000000000, 1.548860246407869746E-16 ) ) ;
#179 = DIRECTION ( 'NONE',  ( -3.491481338843133355E-15, 1.224646799147353207E-16, -1.000000000000000000 ) ) ;
#180 = CARTESIAN_POINT ( 'NONE',  ( 1.990144363140586139E-13, -6.980486755139912911E-15, 57.00000000000000000 ) ) ;
#181 = ORIENTED_EDGE ( 'NONE', *, *, #293, .T. ) ;
#182 = CIRCLE ( 'NONE', #74, 2.799999999999995826 ) ;
#183 = PERSON_AND_ORGANIZATION_ROLE ( 'classification_officer' ) ;
#184 = EDGE_CURVE ( 'NONE', #151, #157, #289, .T. ) ;
#185 = MECHANICAL_CONTEXT ( 'NONE', #68, 'mechanical' ) ;
#186 = EDGE_CURVE ( 'NONE', #25, #63, #108, .T. ) ;
#187 = SHAPE_DEFINITION_REPRESENTATION ( #133, #84 ) ;
#188 = ORIENTED_EDGE ( 'NONE', *, *, #35, .F. ) ;
#189 = LOCAL_TIME ( 15, 38, 7.000000000000000000, #211 ) ;
#190 = CIRCLE ( 'NONE', #304, 2.799999999999995826 ) ;
#191 = FACE_OUTER_BOUND ( 'NONE', #66, .T. ) ;
#192 = AXIS2_PLACEMENT_3D ( 'NONE', #37, #279, #112 ) ;
#193 = DIRECTION ( 'NONE',  ( -5.502656983963553279E-31, -1.000000000000000000, -1.548860246407869746E-16 ) ) ;
#194 = DIRECTION ( 'NONE',  ( 0.0000000000000000000, 1.000000000000000000, 0.0000000000000000000 ) ) ;
#195 = DIRECTION ( 'NONE',  ( -3.491481338843133355E-15, 1.224646799147353207E-16, -1.000000000000000000 ) ) ;
#196 = ORIENTED_EDGE ( 'NONE', *, *, #137, .F. ) ;
#197 = FACE_OUTER_BOUND ( 'NONE', #226, .T. ) ;
#198 = DIRECTION ( 'NONE',  ( 3.491481338843133355E-15, -1.224646799147353207E-16, 1.000000000000000000 ) ) ;
#199 = CIRCLE ( 'NONE', #29, 2.200000000000000178 ) ;
#200 = CYLINDRICAL_SURFACE ( 'NONE', #86, 2.799999999999997602 ) ;
#201 = DIRECTION ( 'NONE',  ( -3.491481338843133355E-15, 1.224646799147353207E-16, -1.000000000000000000 ) ) ;
#202 = PERSON_AND_ORGANIZATION ( #139, #160 ) ;
#203 = DIRECTION ( 'NONE',  ( -3.491481338843133355E-15, 1.224646799147353207E-16, -1.000000000000000000 ) ) ;
#204 = EDGE_LOOP ( 'NONE', ( #129, #306, #93 ) ) ;
#205 = APPROVAL_STATUS ( 'not_yet_approved' ) ;
#206 = APPROVAL_PERSON_ORGANIZATION ( #284, #262, #210 ) ;
#207 = DIRECTION ( 'NONE',  ( -3.491481338843133355E-15, 1.224646799147353207E-16, -1.000000000000000000 ) ) ;
#208 = ORIENTED_EDGE ( 'NONE', *, *, #305, .T. ) ;
#209 = COORDINATED_UNIVERSAL_TIME_OFFSET ( 1, 0, .AHEAD. ) ;
#210 = APPROVAL_ROLE ( '' ) ;
#211 = COORDINATED_UNIVERSAL_TIME_OFFSET ( 1, 0, .AHEAD. ) ;
#212 = CARTESIAN_POINT ( 'NONE',  ( 3.249771868082238522E-13, -2.200000000000011280, 93.00000000000000000 ) ) ;
#213 = CALENDAR_DATE ( 2021, 2, 9 ) ;
#214 = ORIENTED_EDGE ( 'NONE', *, *, #240, .F. ) ;
#215 = AXIS2_PLACEMENT_3D ( 'NONE', #326, #149, #88 ) ;
#216 = ADVANCED_FACE ( 'NONE', ( #224 ), #200, .T. ) ;
#217 = LOCAL_TIME ( 15, 38, 7.000000000000000000, #30 ) ;
#218 = AXIS2_PLACEMENT_3D ( 'NONE', #146, #179, #36 ) ;
#219 = CARTESIAN_POINT ( 'NONE',  ( 1.197232804851145222E-30, 2.799999999999992273, 3.429011037612579415E-16 ) ) ;
#220 = FACE_OUTER_BOUND ( 'NONE', #177, .T. ) ;
#221 = DIRECTION ( 'NONE',  ( -4.275831445896958607E-31, -1.000000000000000000, -1.224646799147353207E-16 ) ) ;
#222 = PLANE ( 'NONE',  #48 ) ;
#223 = ORIENTED_EDGE ( 'NONE', *, *, #237, .F. ) ;
#224 = FACE_OUTER_BOUND ( 'NONE', #331, .T. ) ;
#225 = CARTESIAN_POINT ( 'NONE',  ( 0.0000000000000000000, 0.0000000000000000000, 0.0000000000000000000 ) ) ;
#226 = EDGE_LOOP ( 'NONE', ( #125, #158, #118 ) ) ;
#227 = CIRCLE ( 'NONE', #1, 2.799999999999995826 ) ;
#228 = DIRECTION ( 'NONE',  ( 4.275831445896958607E-31, 1.000000000000000000, 1.224646799147353207E-16 ) ) ;
#229 = APPROVAL_DATE_TIME ( #98, #121 ) ;
#230 = ORIENTED_EDGE ( 'NONE', *, *, #237, .T. ) ;
#231 = EDGE_CURVE ( 'NONE', #147, #25, #136, .T. ) ;
#232 = APPROVAL_ROLE ( '' ) ;
#233 = LOCAL_TIME ( 15, 38, 7.000000000000000000, #209 ) ;
#234 = VERTEX_POINT ( 'NONE', #120 ) ;
#235 = CALENDAR_DATE ( 2021, 2, 9 ) ;
#236 = PERSON_AND_ORGANIZATION ( #139, #160 ) ;
#237 = EDGE_CURVE ( 'NONE', #234, #251, #182, .T. ) ;
#238 = CLOSED_SHELL ( 'NONE', ( #278, #290, #72, #43, #8 ) ) ;
#239 = VECTOR ( 'NONE', #17, 1000.000000000000114 ) ;
#240 = EDGE_CURVE ( 'NONE', #20, #60, #313, .T. ) ;
#241 = MANIFOLD_SOLID_BREP ( 'Corps-Déplacer/Copier1[2]', #238 ) ;
#242 = MANIFOLD_SOLID_BREP ( 'Corps-Déplacer/Copier1[1]', #286 ) ;
#243 = DIRECTION ( 'NONE',  ( -3.491481338843133355E-15, 1.224646799147353207E-16, -1.000000000000000000 ) ) ;
#244 = CARTESIAN_POINT ( 'NONE',  ( 2.611565571153432052E-13, -2.800000000000011369, 92.39999999999999147 ) ) ;
#245 = EDGE_LOOP ( 'NONE', ( #258, #114, #18, #277 ) ) ;
#246 = ORIENTED_EDGE ( 'NONE', *, *, #305, .F. ) ;
#247 = DIRECTION ( 'NONE',  ( -3.491481338843133355E-15, 1.224646799147353207E-16, -1.000000000000000000 ) ) ;
#248 = FACE_OUTER_BOUND ( 'NONE', #99, .T. ) ;
#249 = ORIENTED_EDGE ( 'NONE', *, *, #101, .F. ) ;
#250 = ORIENTED_EDGE ( 'NONE', *, *, #14, .F. ) ;
#251 = VERTEX_POINT ( 'NONE', #61 ) ;
#252 = CARTESIAN_POINT ( 'NONE',  ( 3.226128757091054968E-13, 2.799999999999988720, 92.39999999999999147 ) ) ;
#253 = DIRECTION ( 'NONE',  ( 0.0000000000000000000, 1.000000000000000000, 0.0000000000000000000 ) ) ;
#254 = VERTEX_POINT ( 'NONE', #252 ) ;
#255 = AXIS2_PLACEMENT_3D ( 'NONE', #174, #145, #193 ) ;
#256 = ORIENTED_EDGE ( 'NONE', *, *, #78, .T. ) ;
#257 = CARTESIAN_POINT ( 'NONE',  ( 0.0000000000000000000, 0.0000000000000000000, 0.0000000000000000000 ) ) ;
#258 = ORIENTED_EDGE ( 'NONE', *, *, #165, .F. ) ;
#259 = CALENDAR_DATE ( 2021, 2, 9 ) ;
#260 = LOCAL_TIME ( 15, 38, 7.000000000000000000, #2 ) ;
#261 = CARTESIAN_POINT ( 'NONE',  ( 0.0000000000000000000, 0.0000000000000000000, 0.0000000000000000000 ) ) ;
#262 = APPROVAL ( #134, 'UNSPECIFIED' ) ;
#263 = CIRCLE ( 'NONE', #292, 2.799999999999988720 ) ;
#264 = PERSON_AND_ORGANIZATION_ROLE ( 'design_owner' ) ;
#265 = CC_DESIGN_PERSON_AND_ORGANIZATION_ASSIGNMENT ( #202, #51, ( #324 ) ) ;
#266 = APPROVAL_PERSON_ORGANIZATION ( #132, #83, #163 ) ;
#267 = UNCERTAINTY_MEASURE_WITH_UNIT (LENGTH_MEASURE( 1.000000000000000082E-05 ), #269, 'distance_accuracy_value', 'NONE');
#268 = DIRECTION ( 'NONE',  ( -3.491481338843133355E-15, 1.224646799147353207E-16, -1.000000000000000000 ) ) ;
#269 =( LENGTH_UNIT ( ) NAMED_UNIT ( * ) SI_UNIT ( .MILLI., .METRE. ) );
#270 = EDGE_CURVE ( 'NONE', #63, #157, #16, .T. ) ;
#271 = CARTESIAN_POINT ( 'NONE',  ( 5.874102188025329040E-15, -2.060357694712251189E-16, 1.682409733277180353 ) ) ;
#272 = APPROVAL_PERSON_ORGANIZATION ( #100, #121, #232 ) ;
#273 = CARTESIAN_POINT ( 'NONE',  ( 3.247077645124113894E-13, -1.138921523207038456E-14, 93.00000000000000000 ) ) ;
#274 = CARTESIAN_POINT ( 'NONE',  ( 3.429011037612567582E-16, -2.799999999999992273, -3.429011037612591248E-16 ) ) ;
#275 = DIRECTION ( 'NONE',  ( 0.0000000000000000000, 1.000000000000000000, 0.0000000000000000000 ) ) ;
#276 = CARTESIAN_POINT ( 'NONE',  ( 1.990144363140586139E-13, 2.099663695726586966E-32, 57.00000000000000000 ) ) ;
#277 = ORIENTED_EDGE ( 'NONE', *, *, #148, .F. ) ;
#278 = ADVANCED_FACE ( 'NONE', ( #191 ), #332, .T. ) ;
#279 = DIRECTION ( 'NONE',  ( -3.491481338843133355E-15, 1.224646799147353207E-16, -1.000000000000000000 ) ) ;
#280 = DIRECTION ( 'NONE',  ( 4.275831445896958607E-31, 1.000000000000000000, 1.224646799147353207E-16 ) ) ;
#281 =( NAMED_UNIT ( * ) PLANE_ANGLE_UNIT ( ) SI_UNIT ( $, .RADIAN. ) );
#282 = LINE ( 'NONE', #7, #318 ) ;
#283 = DIRECTION ( 'NONE',  ( -3.491481338843133355E-15, 1.224646799147353207E-16, -1.000000000000000000 ) ) ;
#284 = PERSON_AND_ORGANIZATION ( #139, #160 ) ;
#285 = LINE ( 'NONE', #212, #23 ) ;
#286 = CLOSED_SHELL ( 'NONE', ( #57, #33, #337, #216, #97, #297 ) ) ;
#287 = EDGE_CURVE ( 'NONE', #60, #254, #92, .T. ) ;
#288 = EDGE_LOOP ( 'NONE', ( #230, #126 ) ) ;
#289 = LINE ( 'NONE', #11, #52 ) ;
#290 = ADVANCED_FACE ( 'NONE', ( #197 ), #58, .T. ) ;
#291 = DIRECTION ( 'NONE',  ( 1.798245827342160317E-15, -0.8571673007021098911, 0.5150380749100582634 ) ) ;
#292 = AXIS2_PLACEMENT_3D ( 'NONE', #173, #67, #301 ) ;
#293 = EDGE_CURVE ( 'NONE', #254, #21, #296, .T. ) ;
#294 = VECTOR ( 'NONE', #41, 1000.000000000000000 ) ;
#295 = CARTESIAN_POINT ( 'NONE',  ( 3.247077645124113894E-13, 1.649735760928026673E-32, 93.00000000000000000 ) ) ;
#296 = CIRCLE ( 'NONE', #192, 2.799999999999999822 ) ;
#297 = ADVANCED_FACE ( 'NONE', ( #220 ), #222, .F. ) ;
#298 = CARTESIAN_POINT ( 'NONE',  ( 5.874102188025329040E-15, -2.060357694712251189E-16, 1.682409733277180353 ) ) ;
#299 = CARTESIAN_POINT ( 'NONE',  ( 3.247077645124113894E-13, 2.199999999999989075, 93.00000000000000000 ) ) ;
#300 = CARTESIAN_POINT ( 'NONE',  ( 0.0000000000000000000, 0.0000000000000000000, 0.0000000000000000000 ) ) ;
#301 = DIRECTION ( 'NONE',  ( 5.502656983963553279E-31, 1.000000000000000000, 1.548860246407869746E-16 ) ) ;
#302 = DIRECTION ( 'NONE',  ( -3.491481338843133355E-15, 1.224646799147353207E-16, -1.000000000000000000 ) ) ;
#303 = CARTESIAN_POINT ( 'NONE',  ( 3.247077645124113894E-13, -1.138921523207038456E-14, 93.00000000000000000 ) ) ;
#304 = AXIS2_PLACEMENT_3D ( 'NONE', #141, #335, #90 ) ;
#305 = EDGE_CURVE ( 'NONE', #21, #251, #176, .T. ) ;
#306 = ORIENTED_EDGE ( 'NONE', *, *, #184, .T. ) ;
#307 = DIRECTION ( 'NONE',  ( -3.491481338843133355E-15, 1.224646799147353207E-16, -1.000000000000000000 ) ) ;
#308 = FACE_OUTER_BOUND ( 'NONE', #113, .T. ) ;
#309 = ORIENTED_EDGE ( 'NONE', *, *, #186, .T. ) ;
#310 = PERSON_AND_ORGANIZATION ( #139, #160 ) ;
#311 = DIRECTION ( 'NONE',  ( 3.491481338843133355E-15, -1.224646799147353207E-16, 1.000000000000000000 ) ) ;
#312 = PERSON_AND_ORGANIZATION ( #139, #160 ) ;
#313 = CIRCLE ( 'NONE', #167, 2.200000000000000178 ) ;
#314 = CC_DESIGN_PERSON_AND_ORGANIZATION_ASSIGNMENT ( #310, #183, ( #55 ) ) ;
#315 = CARTESIAN_POINT ( 'NONE',  ( 6.217003291786587771E-15, 2.799999999999988720, 1.682409733277180797 ) ) ;
#316 = PERSON_AND_ORGANIZATION_ROLE ( 'creator' ) ;
#317 = DIRECTION ( 'NONE',  ( -2.382254525458723780E-15, -0.7071067811865453523, -0.7071067811865496822 ) ) ;
#318 = VECTOR ( 'NONE', #207, 1000.000000000000000 ) ;
#319 = AXIS2_PLACEMENT_3D ( 'NONE', #276, #198, #221 ) ;
#320 = CALENDAR_DATE ( 2021, 2, 9 ) ;
#321 = DESIGN_CONTEXT ( 'detailed design', #15, 'design' ) ;
#322 = DIRECTION ( 'NONE',  ( -3.491481338843133355E-15, 1.224646799147353207E-16, -1.000000000000000000 ) ) ;
#323 = CC_DESIGN_SECURITY_CLASSIFICATION ( #55, ( #71 ) ) ;
#324 = PRODUCT_DEFINITION ( 'UNKNOWN', '', #71, #321 ) ;
#325 = AXIS2_PLACEMENT_3D ( 'NONE', #19, #243, #275 ) ;
#326 = CARTESIAN_POINT ( 'NONE',  ( 1.990144363140586139E-13, 2.099663695726586966E-32, 57.00000000000000000 ) ) ;
#327 = CARTESIAN_POINT ( 'NONE',  ( 3.247077645124113894E-13, -1.138921523207038456E-14, 93.00000000000000000 ) ) ;
#328 = CARTESIAN_POINT ( 'NONE',  ( 0.0000000000000000000, 0.0000000000000000000, 0.0000000000000000000 ) ) ;
#329 = DIRECTION ( 'NONE',  ( -5.502656983963553279E-31, -1.000000000000000000, -1.548860246407869746E-16 ) ) ;
#330 = DIRECTION ( 'NONE',  ( 0.0000000000000000000, 1.000000000000000000, 0.0000000000000000000 ) ) ;
#331 = EDGE_LOOP ( 'NONE', ( #246, #116, #91, #188 ) ) ;
#332 = CYLINDRICAL_SURFACE ( 'NONE', #107, 2.799999999999992273 ) ;
#333 = PLANE ( 'NONE',  #319 ) ;
#334 = APPLICATION_PROTOCOL_DEFINITION ( 'international standard', 'config_control_design', 1994, #68 ) ;
#335 = DIRECTION ( 'NONE',  ( -3.491481338843133355E-15, 1.224646799147353207E-16, -1.000000000000000000 ) ) ;
#336 = ORIENTED_EDGE ( 'NONE', *, *, #124, .F. ) ;
#337 = ADVANCED_FACE ( 'NONE', ( #142 ), #172, .F. ) ;
ENDSEC;
END-ISO-10303-21;
