ISO-10303-21;
HEADER;
FILE_DESCRIPTION (( 'STEP AP203' ),
    '1' );
FILE_NAME ('53758.step',
    '2021-09-02T13:38:06',
    ( '' ),
    ( '' ),
    'SwSTEP 2.0',
    'SolidWorks 2019',
    '' );
FILE_SCHEMA (( 'CONFIG_CONTROL_DESIGN' ));
ENDSEC;

DATA;
#1 = APPROVAL_PERSON_ORGANIZATION ( #255, #148, #125 ) ;
#2 = PERSON_AND_ORGANIZATION_ROLE ( 'design_owner' ) ;
#3 = CARTESIAN_POINT ( 'NONE',  ( 1.175853647621662610E-30, 2.749999999999997780, 3.367778697655218546E-16 ) ) ;
#4 = DATE_AND_TIME ( #333, #332 ) ;
#5 = ADVANCED_FACE ( 'NONE', ( #175 ), #171, .T. ) ;
#6 = CARTESIAN_POINT ( 'NONE',  ( 0.0000000000000000000, 0.0000000000000000000, 0.0000000000000000000 ) ) ;
#7 = VECTOR ( 'NONE', #65, 1000.000000000000000 ) ;
#8 = DIRECTION ( 'NONE',  ( -2.468850131082271655E-15, 0.7071067811865455743, -0.7071067811865493491 ) ) ;
#9 = CC_DESIGN_PERSON_AND_ORGANIZATION_ASSIGNMENT ( #60, #259, ( #211 ) ) ;
#10 = AXIS2_PLACEMENT_3D ( 'NONE', #64, #15, #298 ) ;
#11 = SECURITY_CLASSIFICATION ( '', '', #100 ) ;
#12 = DIRECTION ( 'NONE',  ( -3.491481338843133355E-15, 1.224646799147353207E-16, -1.000000000000000000 ) ) ;
#13 = EDGE_CURVE ( 'NONE', #152, #227, #33, .T. ) ;
#14 = DIRECTION ( 'NONE',  ( -4.275831445896958607E-31, -1.000000000000000000, -1.224646799147353207E-16 ) ) ;
#15 = DIRECTION ( 'NONE',  ( 3.491481338843133355E-15, -1.224646799147353207E-16, 1.000000000000000000 ) ) ;
#16 = APPROVAL_PERSON_ORGANIZATION ( #129, #79, #335 ) ;
#17 = DIRECTION ( 'NONE',  ( 0.0000000000000000000, 1.000000000000000000, 0.0000000000000000000 ) ) ;
#18 = CARTESIAN_POINT ( 'NONE',  ( 3.247077645124113894E-13, 1.612241766361480233E-32, 93.00000000000000000 ) ) ;
#19 = DIRECTION ( 'NONE',  ( 3.491481338843133355E-15, -1.224646799147353207E-16, 1.000000000000000000 ) ) ;
#20 = DIRECTION ( 'NONE',  ( -3.491481338843133355E-15, 1.224646799147353207E-16, -1.000000000000000000 ) ) ;
#21 = ORIENTED_EDGE ( 'NONE', *, *, #52, .T. ) ;
#22 = LINE ( 'NONE', #115, #174 ) ;
#23 = AXIS2_PLACEMENT_3D ( 'NONE', #111, #12, #213 ) ;
#24 = ORIENTED_EDGE ( 'NONE', *, *, #289, .T. ) ;
#25 = EDGE_LOOP ( 'NONE', ( #305, #322, #273, #214 ) ) ;
#26 = CALENDAR_DATE ( 2021, 2, 9 ) ;
#27 = EDGE_LOOP ( 'NONE', ( #250, #197 ) ) ;
#28 = VECTOR ( 'NONE', #313, 1000.000000000000000 ) ;
#29 = AXIS2_PLACEMENT_3D ( 'NONE', #39, #114, #17 ) ;
#30 = CC_DESIGN_PERSON_AND_ORGANIZATION_ASSIGNMENT ( #75, #283, ( #257 ) ) ;
#31 = CALENDAR_DATE ( 2021, 2, 9 ) ;
#32 = PERSON_AND_ORGANIZATION ( #85, #311 ) ;
#33 = CIRCLE ( 'NONE', #269, 2.149999999999999911 ) ;
#34 = AXIS2_PLACEMENT_3D ( 'NONE', #218, #328, #69 ) ;
#35 = EDGE_CURVE ( 'NONE', #46, #147, #61, .T. ) ;
#36 = PRODUCT_DEFINITION_SHAPE ( 'NONE', 'NONE',  #257 ) ;
#37 = AXIS2_PLACEMENT_3D ( 'NONE', #18, #20, #219 ) ;
#38 = EDGE_CURVE ( 'NONE', #227, #152, #43, .T. ) ;
#39 = CARTESIAN_POINT ( 'NONE',  ( 1.990144363140586139E-13, -6.980486755139912911E-15, 57.00000000000000000 ) ) ;
#40 = FACE_OUTER_BOUND ( 'NONE', #155, .T. ) ;
#41 = CARTESIAN_POINT ( 'NONE',  ( 1.990144363140586139E-13, 2.062169701160040526E-32, 57.00000000000000000 ) ) ;
#42 = DIRECTION ( 'NONE',  ( 0.0000000000000000000, 1.000000000000000000, 0.0000000000000000000 ) ) ;
#43 = CIRCLE ( 'NONE', #309, 2.149999999999999911 ) ;
#44 = CARTESIAN_POINT ( 'NONE',  ( 3.367778697655207207E-16, -2.749999999999997780, -3.367778697655230379E-16 ) ) ;
#45 = DIRECTION ( 'NONE',  ( 4.275831445896958607E-31, 1.000000000000000000, 1.224646799147353207E-16 ) ) ;
#46 = VERTEX_POINT ( 'NONE', #50 ) ;
#47 = EDGE_CURVE ( 'NONE', #229, #95, #159, .T. ) ;
#48 =( LENGTH_UNIT ( ) NAMED_UNIT ( * ) SI_UNIT ( .MILLI., .METRE. ) );
#49 = ORIENTED_EDGE ( 'NONE', *, *, #13, .F. ) ;
#50 = CARTESIAN_POINT ( 'NONE',  ( 2.611504338813475076E-13, -2.750000000000011102, 92.39999999999999147 ) ) ;
#51 = DATE_TIME_ROLE ( 'classification_date' ) ;
#52 = EDGE_CURVE ( 'NONE', #150, #71, #272, .T. ) ;
#53 = ORIENTED_EDGE ( 'NONE', *, *, #86, .F. ) ;
#54 = MANIFOLD_SOLID_BREP ( 'Corps-Déplacer/Copier1[2]', #132 ) ;
#55 = VERTEX_POINT ( 'NONE', #275 ) ;
#56 = DIRECTION ( 'NONE',  ( 0.0000000000000000000, 0.0000000000000000000, 1.000000000000000000 ) ) ;
#57 = COORDINATED_UNIVERSAL_TIME_OFFSET ( 1, 0, .AHEAD. ) ;
#58 = CONICAL_SURFACE ( 'NONE', #256, 2.149999999999999911, 0.7853981633974453924 ) ;
#59 = ADVANCED_FACE ( 'NONE', ( #40 ), #84, .T. ) ;
#60 = PERSON_AND_ORGANIZATION ( #85, #311 ) ;
#61 = CIRCLE ( 'NONE', #261, 2.750000000000000000 ) ;
#62 = DIRECTION ( 'NONE',  ( -3.491481338843133355E-15, 1.224646799147353207E-16, -1.000000000000000000 ) ) ;
#63 = FACE_OUTER_BOUND ( 'NONE', #222, .T. ) ;
#64 = CARTESIAN_POINT ( 'NONE',  ( 5.769207506096304631E-15, -2.023565593020960901E-16, 1.652366702325801961 ) ) ;
#65 = DIRECTION ( 'NONE',  ( -3.491481338843133355E-15, 1.224646799147353207E-16, -1.000000000000000000 ) ) ;
#66 = EDGE_CURVE ( 'NONE', #55, #71, #202, .T. ) ;
#67 = DIRECTION ( 'NONE',  ( 5.602705292762891424E-31, 1.000000000000000000, 1.577021341797103970E-16 ) ) ;
#68 =( GEOMETRIC_REPRESENTATION_CONTEXT ( 3 ) GLOBAL_UNCERTAINTY_ASSIGNED_CONTEXT ( ( #110 ) ) GLOBAL_UNIT_ASSIGNED_CONTEXT ( ( #48, #134, #206 ) ) REPRESENTATION_CONTEXT ( 'NONE', 'WORKASPACE' ) );
#69 = DIRECTION ( 'NONE',  ( -5.602705292762891424E-31, -1.000000000000000000, -1.577021341797103970E-16 ) ) ;
#70 = CARTESIAN_POINT ( 'NONE',  ( 3.247077645124113894E-13, -1.138921523207038456E-14, 93.00000000000000000 ) ) ;
#71 = VERTEX_POINT ( 'NONE', #92 ) ;
#72 = ORIENTED_EDGE ( 'NONE', *, *, #193, .T. ) ;
#73 = CARTESIAN_POINT ( 'NONE',  ( 3.247077645124113894E-13, -1.138921523207038456E-14, 93.00000000000000000 ) ) ;
#74 = ORIENTED_EDGE ( 'NONE', *, *, #160, .F. ) ;
#75 = PERSON_AND_ORGANIZATION ( #85, #311 ) ;
#76 = SHAPE_DEFINITION_REPRESENTATION ( #36, #290 ) ;
#77 = CARTESIAN_POINT ( 'NONE',  ( 0.0000000000000000000, 0.0000000000000000000, 0.0000000000000000000 ) ) ;
#78 = CARTESIAN_POINT ( 'NONE',  ( 3.239603585765495960E-13, -2.150000000000011458, 93.00000000000000000 ) ) ;
#79 = APPROVAL ( #314, 'UNSPECIFIED' ) ;
#80 = MECHANICAL_CONTEXT ( 'NONE', #187, 'mechanical' ) ;
#81 = CARTESIAN_POINT ( 'NONE',  ( 3.247077645124113894E-13, -1.138921523207038456E-14, 93.00000000000000000 ) ) ;
#82 = AXIS2_PLACEMENT_3D ( 'NONE', #292, #330, #91 ) ;
#83 = CC_DESIGN_PERSON_AND_ORGANIZATION_ASSIGNMENT ( #104, #204, ( #11 ) ) ;
#84 = CONICAL_SURFACE ( 'NONE', #10, 2.749999999999988454, 1.029744258676649649 ) ;
#85 = PERSON ( 'UNSPECIFIED', 'UNSPECIFIED', 'UNSPECIFIED', ('UNSPECIFIED'), ('UNSPECIFIED'), ('UNSPECIFIED') ) ;
#86 = EDGE_CURVE ( 'NONE', #229, #55, #22, .T. ) ;
#87 = PRODUCT ( '53758', '53758', '', ( #80 ) ) ;
#88 = CARTESIAN_POINT ( 'NONE',  ( 0.0000000000000000000, 0.0000000000000000000, 0.0000000000000000000 ) ) ;
#89 = VERTEX_POINT ( 'NONE', #196 ) ;
#90 = CONICAL_SURFACE ( 'NONE', #317, 2.149999999999999911, 0.7853981633974453924 ) ;
#91 = DIRECTION ( 'NONE',  ( -4.275831445896958607E-31, -1.000000000000000000, -1.224646799147353207E-16 ) ) ;
#92 = CARTESIAN_POINT ( 'NONE',  ( 5.769207506096303054E-15, -2.749999999999988454, 1.652366702325801739 ) ) ;
#93 = DIRECTION ( 'NONE',  ( -3.491481338843133355E-15, 1.224646799147353207E-16, -1.000000000000000000 ) ) ;
#94 = EDGE_LOOP ( 'NONE', ( #245, #49 ) ) ;
#95 = VERTEX_POINT ( 'NONE', #325 ) ;
#96 = CIRCLE ( 'NONE', #23, 2.750000000000000000 ) ;
#97 = DIRECTION ( 'NONE',  ( 0.0000000000000000000, 1.000000000000000000, 0.0000000000000000000 ) ) ;
#98 = APPROVAL_ROLE ( '' ) ;
#99 = ORIENTED_EDGE ( 'NONE', *, *, #35, .T. ) ;
#100 = SECURITY_CLASSIFICATION_LEVEL ( 'unclassified' ) ;
#101 = APPROVAL_DATE_TIME ( #158, #148 ) ;
#102 = ORIENTED_EDGE ( 'NONE', *, *, #47, .T. ) ;
#103 = AXIS2_PLACEMENT_3D ( 'NONE', #329, #246, #67 ) ;
#104 = PERSON_AND_ORGANIZATION ( #85, #311 ) ;
#105 = APPROVAL_PERSON_ORGANIZATION ( #130, #260, #98 ) ;
#106 = EDGE_CURVE ( 'NONE', #89, #118, #138, .T. ) ;
#107 = LINE ( 'NONE', #200, #210 ) ;
#108 = VECTOR ( 'NONE', #8, 1000.000000000000114 ) ;
#109 = CIRCLE ( 'NONE', #323, 2.749999999999988454 ) ;
#110 = UNCERTAINTY_MEASURE_WITH_UNIT (LENGTH_MEASURE( 1.000000000000000082E-05 ), #48, 'distance_accuracy_value', 'NONE');
#111 = CARTESIAN_POINT ( 'NONE',  ( 3.226128757091054968E-13, -1.131573642412154441E-14, 92.39999999999999147 ) ) ;
#112 = ORIENTED_EDGE ( 'NONE', *, *, #66, .F. ) ;
#113 = ORIENTED_EDGE ( 'NONE', *, *, #284, .T. ) ;
#114 = DIRECTION ( 'NONE',  ( -3.491481338843133355E-15, 1.224646799147353207E-16, -1.000000000000000000 ) ) ;
#115 = CARTESIAN_POINT ( 'NONE',  ( 1.175853647621660157E-30, 2.749999999999992006, 3.367778697655211644E-16 ) ) ;
#116 = CC_DESIGN_DATE_AND_TIME_ASSIGNMENT ( #310, #51, ( #11 ) ) ;
#117 = CYLINDRICAL_SURFACE ( 'NONE', #185, 2.749999999999992006 ) ;
#118 = VERTEX_POINT ( 'NONE', #146 ) ;
#119 = FACE_OUTER_BOUND ( 'NONE', #25, .T. ) ;
#120 = ORIENTED_EDGE ( 'NONE', *, *, #193, .F. ) ;
#121 = ORIENTED_EDGE ( 'NONE', *, *, #182, .T. ) ;
#122 = LINE ( 'NONE', #264, #291 ) ;
#123 = EDGE_CURVE ( 'NONE', #95, #71, #331, .T. ) ;
#124 = CARTESIAN_POINT ( 'NONE',  ( 3.367778697655199811E-16, -2.749999999999992006, -3.367778697655222984E-16 ) ) ;
#125 = APPROVAL_ROLE ( '' ) ;
#126 = AXIS2_PLACEMENT_3D ( 'NONE', #178, #189, #220 ) ;
#127 = DIRECTION ( 'NONE',  ( -3.491481338843133355E-15, 1.224646799147353207E-16, -1.000000000000000000 ) ) ;
#128 = EDGE_LOOP ( 'NONE', ( #293, #253, #121, #201 ) ) ;
#129 = PERSON_AND_ORGANIZATION ( #85, #311 ) ;
#130 = PERSON_AND_ORGANIZATION ( #85, #311 ) ;
#131 = ORIENTED_EDGE ( 'NONE', *, *, #316, .T. ) ;
#132 = CLOSED_SHELL ( 'NONE', ( #321, #59, #337, #225, #235 ) ) ;
#133 = APPROVAL_DATE_TIME ( #232, #79 ) ;
#134 =( NAMED_UNIT ( * ) PLANE_ANGLE_UNIT ( ) SI_UNIT ( $, .RADIAN. ) );
#135 = COORDINATED_UNIVERSAL_TIME_OFFSET ( 1, 0, .AHEAD. ) ;
#136 = ADVANCED_FACE ( 'NONE', ( #244 ), #240, .F. ) ;
#137 = AXIS2_PLACEMENT_3D ( 'NONE', #88, #62, #177 ) ;
#138 = CIRCLE ( 'NONE', #287, 2.749999999999995559 ) ;
#139 = LOCAL_TIME ( 15, 38, 6.000000000000000000, #57 ) ;
#140 = CARTESIAN_POINT ( 'NONE',  ( 1.990144363140586139E-13, 2.749999999999988454, 57.00000000000000000 ) ) ;
#141 = ORIENTED_EDGE ( 'NONE', *, *, #316, .F. ) ;
#142 = DIRECTION ( 'NONE',  ( 0.0000000000000000000, 1.000000000000000000, 0.0000000000000000000 ) ) ;
#143 = DIRECTION ( 'NONE',  ( -3.491481338843133355E-15, 1.224646799147353207E-16, -1.000000000000000000 ) ) ;
#144 = ORIENTED_EDGE ( 'NONE', *, *, #165, .F. ) ;
#145 = FACE_OUTER_BOUND ( 'NONE', #327, .T. ) ;
#146 = CARTESIAN_POINT ( 'NONE',  ( 2.611504338813475581E-13, -2.750000000000002665, 57.00000000000000000 ) ) ;
#147 = VERTEX_POINT ( 'NONE', #282 ) ;
#148 = APPROVAL ( #153, 'UNSPECIFIED' ) ;
#149 = DIRECTION ( 'NONE',  ( -3.491481338843133355E-15, 1.224646799147353207E-16, -1.000000000000000000 ) ) ;
#150 = VERTEX_POINT ( 'NONE', #6 ) ;
#151 = ORIENTED_EDGE ( 'NONE', *, *, #294, .T. ) ;
#152 = VERTEX_POINT ( 'NONE', #78 ) ;
#153 = APPROVAL_STATUS ( 'not_yet_approved' ) ;
#154 = AXIS2_PLACEMENT_3D ( 'NONE', #215, #324, #188 ) ;
#155 = EDGE_LOOP ( 'NONE', ( #251, #198, #156 ) ) ;
#156 = ORIENTED_EDGE ( 'NONE', *, *, #66, .T. ) ;
#157 = DIRECTION ( 'NONE',  ( 0.0000000000000000000, 1.000000000000000000, 0.0000000000000000000 ) ) ;
#158 = DATE_AND_TIME ( #221, #230 ) ;
#159 = CIRCLE ( 'NONE', #126, 2.749999999999995559 ) ;
#160 = EDGE_CURVE ( 'NONE', #150, #55, #107, .T. ) ;
#161 = APPROVAL_STATUS ( 'not_yet_approved' ) ;
#162 = VECTOR ( 'NONE', #179, 1000.000000000000000 ) ;
#163 = CIRCLE ( 'NONE', #29, 2.749999999999995559 ) ;
#164 = MANIFOLD_SOLID_BREP ( 'Corps-Déplacer/Copier1[1]', #216 ) ;
#165 = EDGE_CURVE ( 'NONE', #147, #89, #315, .T. ) ;
#166 = CIRCLE ( 'NONE', #154, 2.749999999999995559 ) ;
#167 = AXIS2_PLACEMENT_3D ( 'NONE', #41, #19, #14 ) ;
#168 = ADVANCED_FACE ( 'NONE', ( #278 ), #58, .T. ) ;
#169 = CARTESIAN_POINT ( 'NONE',  ( 3.247077645124113894E-13, 2.149999999999988809, 93.00000000000000000 ) ) ;
#170 = CARTESIAN_POINT ( 'NONE',  ( 0.0000000000000000000, 0.0000000000000000000, 0.0000000000000000000 ) ) ;
#171 = CYLINDRICAL_SURFACE ( 'NONE', #236, 2.749999999999997780 ) ;
#172 = DIRECTION ( 'NONE',  ( -2.382254525458723780E-15, -0.7071067811865453523, -0.7071067811865496822 ) ) ;
#173 = ORIENTED_EDGE ( 'NONE', *, *, #123, .T. ) ;
#174 = VECTOR ( 'NONE', #217, 1000.000000000000000 ) ;
#175 = FACE_OUTER_BOUND ( 'NONE', #306, .T. ) ;
#176 = COORDINATED_UNIVERSAL_TIME_OFFSET ( 1, 0, .AHEAD. ) ;
#177 = DIRECTION ( 'NONE',  ( 4.275831445896958607E-31, 1.000000000000000000, 1.224646799147353207E-16 ) ) ;
#178 = CARTESIAN_POINT ( 'NONE',  ( 1.990144363140586139E-13, -6.980486755139912911E-15, 57.00000000000000000 ) ) ;
#179 = DIRECTION ( 'NONE',  ( 1.798245827342160317E-15, -0.8571673007021098911, 0.5150380749100582634 ) ) ;
#180 = ORIENTED_EDGE ( 'NONE', *, *, #165, .T. ) ;
#181 = DATE_TIME_ROLE ( 'creation_date' ) ;
#182 = EDGE_CURVE ( 'NONE', #227, #147, #254, .T. ) ;
#183 = PERSON_AND_ORGANIZATION ( #85, #311 ) ;
#184 = FACE_OUTER_BOUND ( 'NONE', #186, .T. ) ;
#185 = AXIS2_PLACEMENT_3D ( 'NONE', #326, #268, #271 ) ;
#186 = EDGE_LOOP ( 'NONE', ( #247, #151 ) ) ;
#187 = APPLICATION_CONTEXT ( 'configuration controlled 3d designs of mechanical parts and assemblies' ) ;
#188 = DIRECTION ( 'NONE',  ( 0.0000000000000000000, 1.000000000000000000, 0.0000000000000000000 ) ) ;
#189 = DIRECTION ( 'NONE',  ( -3.491481338843133355E-15, 1.224646799147353207E-16, -1.000000000000000000 ) ) ;
#190 = CARTESIAN_POINT ( 'NONE',  ( 5.769207506096303054E-15, -2.749999999999988454, 1.652366702325801739 ) ) ;
#191 = ORIENTED_EDGE ( 'NONE', *, *, #182, .F. ) ;
#192 = FACE_OUTER_BOUND ( 'NONE', #128, .T. ) ;
#193 = EDGE_CURVE ( 'NONE', #147, #46, #96, .T. ) ;
#194 = ORIENTED_EDGE ( 'NONE', *, *, #106, .F. ) ;
#195 = DIRECTION ( 'NONE',  ( 4.275831445896958607E-31, 1.000000000000000000, 1.224646799147353207E-16 ) ) ;
#196 = CARTESIAN_POINT ( 'NONE',  ( 1.990144363140586139E-13, 2.749999999999988454, 57.00000000000000000 ) ) ;
#197 = ORIENTED_EDGE ( 'NONE', *, *, #312, .F. ) ;
#198 = ORIENTED_EDGE ( 'NONE', *, *, #160, .T. ) ;
#199 = CC_DESIGN_PERSON_AND_ORGANIZATION_ASSIGNMENT ( #32, #226, ( #211 ) ) ;
#200 = CARTESIAN_POINT ( 'NONE',  ( 6.105985375861826289E-15, 2.749999999999988454, 1.652366702325802406 ) ) ;
#201 = ORIENTED_EDGE ( 'NONE', *, *, #35, .F. ) ;
#202 = CIRCLE ( 'NONE', #103, 2.749999999999988454 ) ;
#203 = CC_DESIGN_APPROVAL ( #79, ( #257 ) ) ;
#204 = PERSON_AND_ORGANIZATION_ROLE ( 'classification_officer' ) ;
#205 = DIRECTION ( 'NONE',  ( 1.000000000000000000, 0.0000000000000000000, 0.0000000000000000000 ) ) ;
#206 =( NAMED_UNIT ( * ) SI_UNIT ( $, .STERADIAN. ) SOLID_ANGLE_UNIT ( ) );
#207 = DIRECTION ( 'NONE',  ( 1.903218546456022717E-15, 0.8571673007021097801, 0.5150380749100585964 ) ) ;
#208 = DESIGN_CONTEXT ( 'detailed design', #262, 'design' ) ;
#209 = ADVANCED_FACE ( 'NONE', ( #285 ), #319, .T. ) ;
#210 = VECTOR ( 'NONE', #207, 999.9999999999998863 ) ;
#211 = PRODUCT_DEFINITION_FORMATION_WITH_SPECIFIED_SOURCE ( 'ANY', '', #87, .NOT_KNOWN. ) ;
#212 = ADVANCED_FACE ( 'NONE', ( #184 ), #239, .F. ) ;
#213 = DIRECTION ( 'NONE',  ( 0.0000000000000000000, 1.000000000000000000, 0.0000000000000000000 ) ) ;
#214 = ORIENTED_EDGE ( 'NONE', *, *, #284, .F. ) ;
#215 = CARTESIAN_POINT ( 'NONE',  ( 1.990144363140586139E-13, -6.980486755139912911E-15, 57.00000000000000000 ) ) ;
#216 = CLOSED_SHELL ( 'NONE', ( #168, #5, #212, #209, #249, #136 ) ) ;
#217 = DIRECTION ( 'NONE',  ( -3.491481338843133355E-15, 1.224646799147353207E-16, -1.000000000000000000 ) ) ;
#218 = CARTESIAN_POINT ( 'NONE',  ( 5.769207506096304631E-15, -2.023565593020960901E-16, 1.652366702325801961 ) ) ;
#219 = DIRECTION ( 'NONE',  ( 4.275831445896958607E-31, 1.000000000000000000, 1.224646799147353207E-16 ) ) ;
#220 = DIRECTION ( 'NONE',  ( 0.0000000000000000000, 1.000000000000000000, 0.0000000000000000000 ) ) ;
#221 = CALENDAR_DATE ( 2021, 2, 9 ) ;
#222 = EDGE_LOOP ( 'NONE', ( #102, #173, #112, #53 ) ) ;
#223 = LOCAL_TIME ( 15, 38, 6.000000000000000000, #279 ) ;
#224 = DIRECTION ( 'NONE',  ( 0.0000000000000000000, 1.000000000000000000, 0.0000000000000000000 ) ) ;
#225 = ADVANCED_FACE ( 'NONE', ( #119 ), #243, .T. ) ;
#226 = PERSON_AND_ORGANIZATION_ROLE ( 'design_supplier' ) ;
#227 = VERTEX_POINT ( 'NONE', #169 ) ;
#228 = APPROVAL_DATE_TIME ( #4, #260 ) ;
#229 = VERTEX_POINT ( 'NONE', #140 ) ;
#230 = LOCAL_TIME ( 15, 38, 6.000000000000000000, #176 ) ;
#231 = DATE_AND_TIME ( #26, #241 ) ;
#232 = DATE_AND_TIME ( #31, #139 ) ;
#233 = CC_DESIGN_DATE_AND_TIME_ASSIGNMENT ( #231, #181, ( #257 ) ) ;
#234 = CONICAL_SURFACE ( 'NONE', #34, 2.749999999999988454, 1.029744258676649649 ) ;
#235 = ADVANCED_FACE ( 'NONE', ( #265 ), #237, .T. ) ;
#236 = AXIS2_PLACEMENT_3D ( 'NONE', #267, #93, #45 ) ;
#237 = PLANE ( 'NONE',  #167 ) ;
#238 = DIRECTION ( 'NONE',  ( -3.491481338843133355E-15, 1.224646799147353207E-16, -1.000000000000000000 ) ) ;
#239 = PLANE ( 'NONE',  #82 ) ;
#240 = PLANE ( 'NONE',  #37 ) ;
#241 = LOCAL_TIME ( 15, 38, 6.000000000000000000, #135 ) ;
#242 = ORIENTED_EDGE ( 'NONE', *, *, #38, .T. ) ;
#243 = CYLINDRICAL_SURFACE ( 'NONE', #137, 2.749999999999992006 ) ;
#244 = FACE_OUTER_BOUND ( 'NONE', #94, .T. ) ;
#245 = ORIENTED_EDGE ( 'NONE', *, *, #38, .F. ) ;
#246 = DIRECTION ( 'NONE',  ( -3.491481338843133355E-15, 1.224646799147353207E-16, -1.000000000000000000 ) ) ;
#247 = ORIENTED_EDGE ( 'NONE', *, *, #106, .T. ) ;
#248 = CARTESIAN_POINT ( 'NONE',  ( 5.769207506096304631E-15, -2.023565593020960901E-16, 1.652366702325801961 ) ) ;
#249 = ADVANCED_FACE ( 'NONE', ( #192 ), #90, .T. ) ;
#250 = ORIENTED_EDGE ( 'NONE', *, *, #47, .F. ) ;
#251 = ORIENTED_EDGE ( 'NONE', *, *, #52, .F. ) ;
#252 = ORIENTED_EDGE ( 'NONE', *, *, #294, .F. ) ;
#253 = ORIENTED_EDGE ( 'NONE', *, *, #13, .T. ) ;
#254 = LINE ( 'NONE', #286, #108 ) ;
#255 = PERSON_AND_ORGANIZATION ( #85, #311 ) ;
#256 = AXIS2_PLACEMENT_3D ( 'NONE', #81, #280, #157 ) ;
#257 = PRODUCT_DEFINITION ( 'UNKNOWN', '', #211, #208 ) ;
#258 = CC_DESIGN_APPROVAL ( #148, ( #11 ) ) ;
#259 = PERSON_AND_ORGANIZATION_ROLE ( 'creator' ) ;
#260 = APPROVAL ( #161, 'UNSPECIFIED' ) ;
#261 = AXIS2_PLACEMENT_3D ( 'NONE', #300, #334, #97 ) ;
#262 = APPLICATION_CONTEXT ( 'configuration controlled 3d designs of mechanical parts and assemblies' ) ;
#263 = AXIS2_PLACEMENT_3D ( 'NONE', #170, #299, #195 ) ;
#264 = CARTESIAN_POINT ( 'NONE',  ( 3.249710635742280536E-13, -2.150000000000011458, 93.00000000000000000 ) ) ;
#265 = FACE_OUTER_BOUND ( 'NONE', #27, .T. ) ;
#266 = CC_DESIGN_PERSON_AND_ORGANIZATION_ASSIGNMENT ( #183, #2, ( #87 ) ) ;
#267 = CARTESIAN_POINT ( 'NONE',  ( 0.0000000000000000000, 0.0000000000000000000, 0.0000000000000000000 ) ) ;
#268 = DIRECTION ( 'NONE',  ( -3.491481338843133355E-15, 1.224646799147353207E-16, -1.000000000000000000 ) ) ;
#269 = AXIS2_PLACEMENT_3D ( 'NONE', #70, #127, #308 ) ;
#270 = DIRECTION ( 'NONE',  ( -3.491481338843133355E-15, 1.224646799147353207E-16, -1.000000000000000000 ) ) ;
#271 = DIRECTION ( 'NONE',  ( 4.275831445896958607E-31, 1.000000000000000000, 1.224646799147353207E-16 ) ) ;
#272 = LINE ( 'NONE', #190, #162 ) ;
#273 = ORIENTED_EDGE ( 'NONE', *, *, #86, .T. ) ;
#274 = CARTESIAN_POINT ( 'NONE',  ( 3.247077645124113894E-13, -1.138921523207038456E-14, 93.00000000000000000 ) ) ;
#275 = CARTESIAN_POINT ( 'NONE',  ( 6.105985375861826289E-15, 2.749999999999988454, 1.652366702325802406 ) ) ;
#276 = CALENDAR_DATE ( 2021, 2, 9 ) ;
#277 = COORDINATED_UNIVERSAL_TIME_OFFSET ( 1, 0, .AHEAD. ) ;
#278 = FACE_OUTER_BOUND ( 'NONE', #303, .T. ) ;
#279 = COORDINATED_UNIVERSAL_TIME_OFFSET ( 1, 0, .AHEAD. ) ;
#280 = DIRECTION ( 'NONE',  ( -3.491481338843133355E-15, 1.224646799147353207E-16, -1.000000000000000000 ) ) ;
#281 = APPLICATION_PROTOCOL_DEFINITION ( 'international standard', 'config_control_design', 1994, #262 ) ;
#282 = CARTESIAN_POINT ( 'NONE',  ( 3.226128757091054968E-13, 2.749999999999988454, 92.39999999999999147 ) ) ;
#283 = PERSON_AND_ORGANIZATION_ROLE ( 'creator' ) ;
#284 = EDGE_CURVE ( 'NONE', #71, #55, #109, .T. ) ;
#285 = FACE_OUTER_BOUND ( 'NONE', #336, .T. ) ;
#286 = CARTESIAN_POINT ( 'NONE',  ( 3.247077645124113894E-13, 2.149999999999988809, 93.00000000000000000 ) ) ;
#287 = AXIS2_PLACEMENT_3D ( 'NONE', #296, #270, #42 ) ;
#288 = AXIS2_PLACEMENT_3D ( 'NONE', #77, #56, #205 ) ;
#289 = EDGE_CURVE ( 'NONE', #152, #46, #122, .T. ) ;
#290 = ADVANCED_BREP_SHAPE_REPRESENTATION ( '53758', ( #164, #54, #288 ), #68 ) ;
#291 = VECTOR ( 'NONE', #172, 1000.000000000000000 ) ;
#292 = CARTESIAN_POINT ( 'NONE',  ( 1.990144363140586139E-13, 2.062169701160040526E-32, 57.00000000000000000 ) ) ;
#293 = ORIENTED_EDGE ( 'NONE', *, *, #289, .F. ) ;
#294 = EDGE_CURVE ( 'NONE', #118, #89, #163, .T. ) ;
#295 = LINE ( 'NONE', #44, #7 ) ;
#296 = CARTESIAN_POINT ( 'NONE',  ( 1.990144363140586139E-13, -6.980486755139912911E-15, 57.00000000000000000 ) ) ;
#297 = DIRECTION ( 'NONE',  ( 5.602705292762891424E-31, 1.000000000000000000, 1.577021341797103970E-16 ) ) ;
#298 = DIRECTION ( 'NONE',  ( -5.602705292762891424E-31, -1.000000000000000000, -1.577021341797103970E-16 ) ) ;
#299 = DIRECTION ( 'NONE',  ( -3.491481338843133355E-15, 1.224646799147353207E-16, -1.000000000000000000 ) ) ;
#300 = CARTESIAN_POINT ( 'NONE',  ( 3.226128757091054968E-13, -1.131573642412154441E-14, 92.39999999999999147 ) ) ;
#301 = CC_DESIGN_APPROVAL ( #260, ( #211 ) ) ;
#302 = PRODUCT_RELATED_PRODUCT_CATEGORY ( 'detail', '', ( #87 ) ) ;
#303 = EDGE_LOOP ( 'NONE', ( #242, #24, #120, #191 ) ) ;
#304 = DIRECTION ( 'NONE',  ( -3.491481338843133355E-15, 1.224646799147353207E-16, -1.000000000000000000 ) ) ;
#305 = ORIENTED_EDGE ( 'NONE', *, *, #123, .F. ) ;
#306 = EDGE_LOOP ( 'NONE', ( #72, #131, #194, #144 ) ) ;
#307 = APPLICATION_PROTOCOL_DEFINITION ( 'international standard', 'config_control_design', 1994, #187 ) ;
#308 = DIRECTION ( 'NONE',  ( 0.0000000000000000000, 1.000000000000000000, 0.0000000000000000000 ) ) ;
#309 = AXIS2_PLACEMENT_3D ( 'NONE', #73, #238, #224 ) ;
#310 = DATE_AND_TIME ( #276, #223 ) ;
#311 = ORGANIZATION ( 'UNSPECIFIED', 'UNSPECIFIED', '' ) ;
#312 = EDGE_CURVE ( 'NONE', #95, #229, #166, .T. ) ;
#313 = DIRECTION ( 'NONE',  ( -3.491481338843133355E-15, 1.224646799147353207E-16, -1.000000000000000000 ) ) ;
#314 = APPROVAL_STATUS ( 'not_yet_approved' ) ;
#315 = LINE ( 'NONE', #3, #28 ) ;
#316 = EDGE_CURVE ( 'NONE', #46, #118, #295, .T. ) ;
#317 = AXIS2_PLACEMENT_3D ( 'NONE', #274, #149, #142 ) ;
#318 = CC_DESIGN_SECURITY_CLASSIFICATION ( #11, ( #211 ) ) ;
#319 = CYLINDRICAL_SURFACE ( 'NONE', #263, 2.749999999999997780 ) ;
#320 = VECTOR ( 'NONE', #143, 1000.000000000000000 ) ;
#321 = ADVANCED_FACE ( 'NONE', ( #63 ), #117, .T. ) ;
#322 = ORIENTED_EDGE ( 'NONE', *, *, #312, .T. ) ;
#323 = AXIS2_PLACEMENT_3D ( 'NONE', #248, #304, #297 ) ;
#324 = DIRECTION ( 'NONE',  ( -3.491481338843133355E-15, 1.224646799147353207E-16, -1.000000000000000000 ) ) ;
#325 = CARTESIAN_POINT ( 'NONE',  ( 1.027285997798427368E-13, -2.750000000000002220, 57.00000000000000000 ) ) ;
#326 = CARTESIAN_POINT ( 'NONE',  ( 0.0000000000000000000, 0.0000000000000000000, 0.0000000000000000000 ) ) ;
#327 = EDGE_LOOP ( 'NONE', ( #74, #21, #113 ) ) ;
#328 = DIRECTION ( 'NONE',  ( 3.491481338843133355E-15, -1.224646799147353207E-16, 1.000000000000000000 ) ) ;
#329 = CARTESIAN_POINT ( 'NONE',  ( 5.769207506096304631E-15, -2.023565593020960901E-16, 1.652366702325801961 ) ) ;
#330 = DIRECTION ( 'NONE',  ( 3.491481338843133355E-15, -1.224646799147353207E-16, 1.000000000000000000 ) ) ;
#331 = LINE ( 'NONE', #124, #320 ) ;
#332 = LOCAL_TIME ( 15, 38, 6.000000000000000000, #277 ) ;
#333 = CALENDAR_DATE ( 2021, 2, 9 ) ;
#334 = DIRECTION ( 'NONE',  ( -3.491481338843133355E-15, 1.224646799147353207E-16, -1.000000000000000000 ) ) ;
#335 = APPROVAL_ROLE ( '' ) ;
#336 = EDGE_LOOP ( 'NONE', ( #141, #99, #180, #252 ) ) ;
#337 = ADVANCED_FACE ( 'NONE', ( #145 ), #234, .T. ) ;
ENDSEC;
END-ISO-10303-21;
