ISO-10303-21;
HEADER;
FILE_DESCRIPTION (( 'STEP AP203' ),
    '1' );
FILE_NAME ('53757.step',
    '2021-09-02T13:38:05',
    ( '' ),
    ( '' ),
    'SwSTEP 2.0',
    'SolidWorks 2019',
    '' );
FILE_SCHEMA (( 'CONFIG_CONTROL_DESIGN' ));
ENDSEC;

DATA;
#1 = CIRCLE ( 'NONE', #26, 2.699999999999996625 ) ;
#2 = CARTESIAN_POINT ( 'NONE',  ( 3.247077645124113894E-13, -1.138921523207038456E-14, 93.00000000000000000 ) ) ;
#3 = EDGE_CURVE ( 'NONE', #32, #166, #203, .T. ) ;
#4 = ORIENTED_EDGE ( 'NONE', *, *, #103, .T. ) ;
#5 = CARTESIAN_POINT ( 'NONE',  ( 2.611443106473518099E-13, -2.700000000000003730, 57.00000000000000000 ) ) ;
#6 = CONICAL_SURFACE ( 'NONE', #257, 2.699999999999989519, 1.029744258676649649 ) ;
#7 = CARTESIAN_POINT ( 'NONE',  ( 3.247077645124113894E-13, 2.099999999999989875, 93.00000000000000000 ) ) ;
#8 = SECURITY_CLASSIFICATION ( '', '', #167 ) ;
#9 = CARTESIAN_POINT ( 'NONE',  ( 0.0000000000000000000, 0.0000000000000000000, 0.0000000000000000000 ) ) ;
#10 = APPLICATION_CONTEXT ( 'configuration controlled 3d designs of mechanical parts and assemblies' ) ;
#11 = ORIENTED_EDGE ( 'NONE', *, *, #51, .T. ) ;
#12 = CALENDAR_DATE ( 2021, 2, 9 ) ;
#13 = CARTESIAN_POINT ( 'NONE',  ( 1.990144363140586139E-13, 2.024675706593494907E-32, 57.00000000000000000 ) ) ;
#14 = ORIENTED_EDGE ( 'NONE', *, *, #211, .F. ) ;
#15 = CIRCLE ( 'NONE', #315, 2.699999999999989519 ) ;
#16 = PERSON_AND_ORGANIZATION ( #236, #311 ) ;
#17 = PLANE ( 'NONE',  #33 ) ;
#18 = DIRECTION ( 'NONE',  ( -3.491481338843133355E-15, 1.224646799147353207E-16, -1.000000000000000000 ) ) ;
#19 = CARTESIAN_POINT ( 'NONE',  ( 1.154474490392178421E-30, 2.699999999999998845, 3.306546357697852254E-16 ) ) ;
#20 = SHAPE_DEFINITION_REPRESENTATION ( #313, #174 ) ;
#21 = DIRECTION ( 'NONE',  ( 4.275831445896958607E-31, 1.000000000000000000, 1.224646799147353207E-16 ) ) ;
#22 = VECTOR ( 'NONE', #104, 1000.000000000000000 ) ;
#23 = LINE ( 'NONE', #176, #267 ) ;
#24 = DIRECTION ( 'NONE',  ( 0.0000000000000000000, 1.000000000000000000, 0.0000000000000000000 ) ) ;
#25 = CARTESIAN_POINT ( 'NONE',  ( 3.226128757091054968E-13, -1.131573642412154441E-14, 92.39999999999999147 ) ) ;
#26 = AXIS2_PLACEMENT_3D ( 'NONE', #260, #229, #281 ) ;
#27 = EDGE_CURVE ( 'NONE', #88, #133, #124, .T. ) ;
#28 = UNCERTAINTY_MEASURE_WITH_UNIT (LENGTH_MEASURE( 1.000000000000000082E-05 ), #330, 'distance_accuracy_value', 'NONE');
#29 = ORIENTED_EDGE ( 'NONE', *, *, #83, .F. ) ;
#30 = CC_DESIGN_PERSON_AND_ORGANIZATION_ASSIGNMENT ( #118, #175, ( #8 ) ) ;
#31 = AXIS2_PLACEMENT_3D ( 'NONE', #228, #168, #194 ) ;
#32 = VERTEX_POINT ( 'NONE', #195 ) ;
#33 = AXIS2_PLACEMENT_3D ( 'NONE', #275, #101, #48 ) ;
#34 = DIRECTION ( 'NONE',  ( 4.275831445896958607E-31, 1.000000000000000000, 1.224646799147353207E-16 ) ) ;
#35 = EDGE_LOOP ( 'NONE', ( #294, #192 ) ) ;
#36 = APPLICATION_PROTOCOL_DEFINITION ( 'international standard', 'config_control_design', 1994, #10 ) ;
#37 = DIRECTION ( 'NONE',  ( -2.468850131082271655E-15, 0.7071067811865455743, -0.7071067811865493491 ) ) ;
#38 = ADVANCED_FACE ( 'NONE', ( #49 ), #6, .T. ) ;
#39 = ORIENTED_EDGE ( 'NONE', *, *, #3, .F. ) ;
#40 = AXIS2_PLACEMENT_3D ( 'NONE', #90, #18, #93 ) ;
#41 = PERSON_AND_ORGANIZATION ( #236, #311 ) ;
#42 = CARTESIAN_POINT ( 'NONE',  ( 0.0000000000000000000, 0.0000000000000000000, 0.0000000000000000000 ) ) ;
#43 = CARTESIAN_POINT ( 'NONE',  ( 1.990144363140586139E-13, -6.980486755139912911E-15, 57.00000000000000000 ) ) ;
#44 = CALENDAR_DATE ( 2021, 2, 9 ) ;
#45 = CARTESIAN_POINT ( 'NONE',  ( 0.0000000000000000000, 0.0000000000000000000, 0.0000000000000000000 ) ) ;
#46 = CALENDAR_DATE ( 2021, 2, 9 ) ;
#47 = EDGE_CURVE ( 'NONE', #32, #62, #58, .T. ) ;
#48 = DIRECTION ( 'NONE',  ( -4.275831445896958607E-31, -1.000000000000000000, -1.224646799147353207E-16 ) ) ;
#49 = FACE_OUTER_BOUND ( 'NONE', #115, .T. ) ;
#50 = CARTESIAN_POINT ( 'NONE',  ( 5.664312824167282589E-15, -1.986773491329671352E-16, 1.622323671374424237 ) ) ;
#51 = EDGE_CURVE ( 'NONE', #138, #166, #324, .T. ) ;
#52 = CLOSED_SHELL ( 'NONE', ( #238, #38, #89, #268, #243 ) ) ;
#53 = APPROVAL_PERSON_ORGANIZATION ( #69, #110, #222 ) ;
#54 = ORIENTED_EDGE ( 'NONE', *, *, #171, .F. ) ;
#55 = ORIENTED_EDGE ( 'NONE', *, *, #105, .F. ) ;
#56 = LOCAL_TIME ( 15, 38, 5.000000000000000000, #95 ) ;
#57 = EDGE_CURVE ( 'NONE', #62, #32, #1, .T. ) ;
#58 = CIRCLE ( 'NONE', #86, 2.699999999999996625 ) ;
#59 = AXIS2_PLACEMENT_3D ( 'NONE', #71, #336, #247 ) ;
#60 = ORIENTED_EDGE ( 'NONE', *, *, #47, .T. ) ;
#61 = DIRECTION ( 'NONE',  ( 1.000000000000000000, 0.0000000000000000000, 0.0000000000000000000 ) ) ;
#62 = VERTEX_POINT ( 'NONE', #251 ) ;
#63 = DATE_AND_TIME ( #46, #109 ) ;
#64 = APPROVAL_STATUS ( 'not_yet_approved' ) ;
#65 = CARTESIAN_POINT ( 'NONE',  ( 3.247077645124113894E-13, 2.099999999999989875, 93.00000000000000000 ) ) ;
#66 = ORIENTED_EDGE ( 'NONE', *, *, #57, .T. ) ;
#67 = MECHANICAL_CONTEXT ( 'NONE', #10, 'mechanical' ) ;
#68 = FACE_OUTER_BOUND ( 'NONE', #232, .T. ) ;
#69 = PERSON_AND_ORGANIZATION ( #236, #311 ) ;
#70 = CALENDAR_DATE ( 2021, 2, 9 ) ;
#71 = CARTESIAN_POINT ( 'NONE',  ( 1.990144363140586139E-13, -6.980486755139912911E-15, 57.00000000000000000 ) ) ;
#72 = DIRECTION ( 'NONE',  ( -3.491481338843133355E-15, 1.224646799147353207E-16, -1.000000000000000000 ) ) ;
#73 = CYLINDRICAL_SURFACE ( 'NONE', #226, 2.699999999999998845 ) ;
#74 = EDGE_CURVE ( 'NONE', #88, #237, #337, .T. ) ;
#75 = DIRECTION ( 'NONE',  ( 1.798245827342160317E-15, -0.8571673007021098911, 0.5150380749100582634 ) ) ;
#76 = DIRECTION ( 'NONE',  ( 0.0000000000000000000, 1.000000000000000000, 0.0000000000000000000 ) ) ;
#77 = CIRCLE ( 'NONE', #302, 2.700000000000001066 ) ;
#78 = DIRECTION ( 'NONE',  ( 4.275831445896958607E-31, 1.000000000000000000, 1.224646799147353207E-16 ) ) ;
#79 = FACE_OUTER_BOUND ( 'NONE', #81, .T. ) ;
#80 = AXIS2_PLACEMENT_3D ( 'NONE', #149, #123, #142 ) ;
#81 = EDGE_LOOP ( 'NONE', ( #54, #323, #108, #289 ) ) ;
#82 = ORIENTED_EDGE ( 'NONE', *, *, #207, .F. ) ;
#83 = EDGE_CURVE ( 'NONE', #317, #166, #144, .T. ) ;
#84 = ORIENTED_EDGE ( 'NONE', *, *, #74, .F. ) ;
#85 = COORDINATED_UNIVERSAL_TIME_OFFSET ( 1, 0, .AHEAD. ) ;
#86 = AXIS2_PLACEMENT_3D ( 'NONE', #43, #308, #76 ) ;
#87 = AXIS2_PLACEMENT_3D ( 'NONE', #2, #312, #288 ) ;
#88 = VERTEX_POINT ( 'NONE', #227 ) ;
#89 = ADVANCED_FACE ( 'NONE', ( #230 ), #163, .T. ) ;
#90 = CARTESIAN_POINT ( 'NONE',  ( 3.247077645124113894E-13, -1.138921523207038456E-14, 93.00000000000000000 ) ) ;
#91 = ORIENTED_EDGE ( 'NONE', *, *, #233, .T. ) ;
#92 = DATE_AND_TIME ( #218, #239 ) ;
#93 = DIRECTION ( 'NONE',  ( 0.0000000000000000000, 1.000000000000000000, 0.0000000000000000000 ) ) ;
#94 = CARTESIAN_POINT ( 'NONE',  ( 3.226128757091054968E-13, -1.131573642412154441E-14, 92.39999999999999147 ) ) ;
#95 = COORDINATED_UNIVERSAL_TIME_OFFSET ( 1, 0, .AHEAD. ) ;
#96 = DIRECTION ( 'NONE',  ( -2.382254525458723780E-15, -0.7071067811865453523, -0.7071067811865496822 ) ) ;
#97 = CIRCLE ( 'NONE', #59, 2.699999999999996625 ) ;
#98 = CARTESIAN_POINT ( 'NONE',  ( 0.0000000000000000000, 0.0000000000000000000, 0.0000000000000000000 ) ) ;
#99 = CARTESIAN_POINT ( 'NONE',  ( 5.664312824167281800E-15, -2.699999999999989519, 1.622323671374423792 ) ) ;
#100 = PRODUCT_DEFINITION ( 'UNKNOWN', '', #184, #234 ) ;
#101 = DIRECTION ( 'NONE',  ( 3.491481338843133355E-15, -1.224646799147353207E-16, 1.000000000000000000 ) ) ;
#102 = CARTESIAN_POINT ( 'NONE',  ( 5.664312824167282589E-15, -1.986773491329671352E-16, 1.622323671374424237 ) ) ;
#103 = EDGE_CURVE ( 'NONE', #133, #88, #77, .T. ) ;
#104 = DIRECTION ( 'NONE',  ( -3.491481338843133355E-15, 1.224646799147353207E-16, -1.000000000000000000 ) ) ;
#105 = EDGE_CURVE ( 'NONE', #133, #291, #23, .T. ) ;
#106 = ORIENTED_EDGE ( 'NONE', *, *, #74, .T. ) ;
#107 = AXIS2_PLACEMENT_3D ( 'NONE', #13, #113, #220 ) ;
#108 = ORIENTED_EDGE ( 'NONE', *, *, #207, .T. ) ;
#109 = LOCAL_TIME ( 15, 38, 5.000000000000000000, #283 ) ;
#110 = APPROVAL ( #151, 'UNSPECIFIED' ) ;
#111 = ORIENTED_EDGE ( 'NONE', *, *, #262, .T. ) ;
#112 = PERSON_AND_ORGANIZATION ( #236, #311 ) ;
#113 = DIRECTION ( 'NONE',  ( 3.491481338843133355E-15, -1.224646799147353207E-16, 1.000000000000000000 ) ) ;
#114 = CONICAL_SURFACE ( 'NONE', #80, 2.100000000000000977, 0.7853981633974453924 ) ;
#115 = EDGE_LOOP ( 'NONE', ( #248, #169, #111 ) ) ;
#116 = DATE_TIME_ROLE ( 'creation_date' ) ;
#117 = DIRECTION ( 'NONE',  ( -3.491481338843133355E-15, 1.224646799147353207E-16, -1.000000000000000000 ) ) ;
#118 = PERSON_AND_ORGANIZATION ( #236, #311 ) ;
#119 = LINE ( 'NONE', #332, #198 ) ;
#120 = CARTESIAN_POINT ( 'NONE',  ( 5.994967459937067962E-15, 2.699999999999989519, 1.622323671374424681 ) ) ;
#121 = PERSON_AND_ORGANIZATION_ROLE ( 'design_owner' ) ;
#122 = APPROVAL ( #301, 'UNSPECIFIED' ) ;
#123 = DIRECTION ( 'NONE',  ( -3.491481338843133355E-15, 1.224646799147353207E-16, -1.000000000000000000 ) ) ;
#124 = CIRCLE ( 'NONE', #162, 2.700000000000001066 ) ;
#125 = VECTOR ( 'NONE', #150, 1000.000000000000000 ) ;
#126 = VECTOR ( 'NONE', #75, 1000.000000000000000 ) ;
#127 = FACE_OUTER_BOUND ( 'NONE', #210, .T. ) ;
#128 = DIRECTION ( 'NONE',  ( 3.491481338843133355E-15, -1.224646799147353207E-16, 1.000000000000000000 ) ) ;
#129 = DIRECTION ( 'NONE',  ( 3.491481338843133355E-15, -1.224646799147353207E-16, 1.000000000000000000 ) ) ;
#130 = APPROVAL_PERSON_ORGANIZATION ( #139, #137, #196 ) ;
#131 = ADVANCED_FACE ( 'NONE', ( #173 ), #114, .T. ) ;
#132 = ORIENTED_EDGE ( 'NONE', *, *, #211, .T. ) ;
#133 = VERTEX_POINT ( 'NONE', #250 ) ;
#134 = CC_DESIGN_DATE_AND_TIME_ASSIGNMENT ( #199, #116, ( #100 ) ) ;
#135 = CLOSED_SHELL ( 'NONE', ( #131, #161, #193, #201, #316, #310 ) ) ;
#136 = CC_DESIGN_APPROVAL ( #110, ( #8 ) ) ;
#137 = APPROVAL ( #64, 'UNSPECIFIED' ) ;
#138 = VERTEX_POINT ( 'NONE', #99 ) ;
#139 = PERSON_AND_ORGANIZATION ( #236, #311 ) ;
#140 = FACE_OUTER_BOUND ( 'NONE', #296, .T. ) ;
#141 = VERTEX_POINT ( 'NONE', #307 ) ;
#142 = DIRECTION ( 'NONE',  ( 0.0000000000000000000, 1.000000000000000000, 0.0000000000000000000 ) ) ;
#143 = AXIS2_PLACEMENT_3D ( 'NONE', #98, #187, #61 ) ;
#144 = LINE ( 'NONE', #120, #209 ) ;
#145 = PERSON_AND_ORGANIZATION_ROLE ( 'creator' ) ;
#146 = DIRECTION ( 'NONE',  ( -3.491481338843133355E-15, 1.224646799147353207E-16, -1.000000000000000000 ) ) ;
#147 = DIRECTION ( 'NONE',  ( -3.491481338843133355E-15, 1.224646799147353207E-16, -1.000000000000000000 ) ) ;
#148 = EDGE_CURVE ( 'NONE', #141, #328, #181, .T. ) ;
#149 = CARTESIAN_POINT ( 'NONE',  ( 3.247077645124113894E-13, -1.138921523207038456E-14, 93.00000000000000000 ) ) ;
#150 = DIRECTION ( 'NONE',  ( -3.491481338843133355E-15, 1.224646799147353207E-16, -1.000000000000000000 ) ) ;
#151 = APPROVAL_STATUS ( 'not_yet_approved' ) ;
#152 = FACE_OUTER_BOUND ( 'NONE', #182, .T. ) ;
#153 = AXIS2_PLACEMENT_3D ( 'NONE', #50, #129, #156 ) ;
#154 = CC_DESIGN_PERSON_AND_ORGANIZATION_ASSIGNMENT ( #16, #121, ( #286 ) ) ;
#155 = DIRECTION ( 'NONE',  ( 2.853229547240360441E-31, 1.000000000000000000, 1.606225440719272037E-16 ) ) ;
#156 = DIRECTION ( 'NONE',  ( -2.853229547240360441E-31, -1.000000000000000000, -1.606225440719272037E-16 ) ) ;
#157 = CARTESIAN_POINT ( 'NONE',  ( 3.247077645124113894E-13, 1.574747771794934614E-32, 93.00000000000000000 ) ) ;
#158 = ORIENTED_EDGE ( 'NONE', *, *, #27, .F. ) ;
#159 = ORIENTED_EDGE ( 'NONE', *, *, #214, .T. ) ;
#160 = CC_DESIGN_APPROVAL ( #137, ( #100 ) ) ;
#161 = ADVANCED_FACE ( 'NONE', ( #127 ), #73, .T. ) ;
#162 = AXIS2_PLACEMENT_3D ( 'NONE', #94, #72, #24 ) ;
#163 = CONICAL_SURFACE ( 'NONE', #153, 2.699999999999989519, 1.029744258676649649 ) ;
#164 = ORIENTED_EDGE ( 'NONE', *, *, #3, .T. ) ;
#165 = PERSON_AND_ORGANIZATION ( #236, #311 ) ;
#166 = VERTEX_POINT ( 'NONE', #170 ) ;
#167 = SECURITY_CLASSIFICATION_LEVEL ( 'unclassified' ) ;
#168 = DIRECTION ( 'NONE',  ( -3.491481338843133355E-15, 1.224646799147353207E-16, -1.000000000000000000 ) ) ;
#169 = ORIENTED_EDGE ( 'NONE', *, *, #83, .T. ) ;
#170 = CARTESIAN_POINT ( 'NONE',  ( 5.994967459937067962E-15, 2.699999999999989519, 1.622323671374424681 ) ) ;
#171 = EDGE_CURVE ( 'NONE', #141, #133, #119, .T. ) ;
#172 = LOCAL_TIME ( 15, 38, 5.000000000000000000, #272 ) ;
#173 = FACE_OUTER_BOUND ( 'NONE', #183, .T. ) ;
#174 = ADVANCED_BREP_SHAPE_REPRESENTATION ( '53757', ( #329, #327, #143 ), #325 ) ;
#175 = PERSON_AND_ORGANIZATION_ROLE ( 'classification_officer' ) ;
#176 = CARTESIAN_POINT ( 'NONE',  ( 3.306546357697840914E-16, -2.699999999999998845, -3.306546357697863594E-16 ) ) ;
#177 = CC_DESIGN_DATE_AND_TIME_ASSIGNMENT ( #63, #299, ( #8 ) ) ;
#178 = DIRECTION ( 'NONE',  ( -3.491481338843133355E-15, 1.224646799147353207E-16, -1.000000000000000000 ) ) ;
#179 = DIRECTION ( 'NONE',  ( -3.491481338843133355E-15, 1.224646799147353207E-16, -1.000000000000000000 ) ) ;
#180 = AXIS2_PLACEMENT_3D ( 'NONE', #102, #179, #155 ) ;
#181 = CIRCLE ( 'NONE', #40, 2.100000000000000977 ) ;
#182 = EDGE_LOOP ( 'NONE', ( #55, #4, #106, #189 ) ) ;
#183 = EDGE_LOOP ( 'NONE', ( #217, #240, #158, #82 ) ) ;
#184 = PRODUCT_DEFINITION_FORMATION_WITH_SPECIFIED_SOURCE ( 'ANY', '', #286, .NOT_KNOWN. ) ;
#185 = CC_DESIGN_PERSON_AND_ORGANIZATION_ASSIGNMENT ( #274, #297, ( #184 ) ) ;
#186 = ORIENTED_EDGE ( 'NONE', *, *, #47, .F. ) ;
#187 = DIRECTION ( 'NONE',  ( 0.0000000000000000000, 0.0000000000000000000, 1.000000000000000000 ) ) ;
#188 = AXIS2_PLACEMENT_3D ( 'NONE', #42, #146, #78 ) ;
#189 = ORIENTED_EDGE ( 'NONE', *, *, #233, .F. ) ;
#190 = APPROVAL_DATE_TIME ( #219, #122 ) ;
#191 = FACE_OUTER_BOUND ( 'NONE', #266, .T. ) ;
#192 = ORIENTED_EDGE ( 'NONE', *, *, #148, .F. ) ;
#193 = ADVANCED_FACE ( 'NONE', ( #191 ), #17, .F. ) ;
#194 = DIRECTION ( 'NONE',  ( 0.0000000000000000000, 1.000000000000000000, 0.0000000000000000000 ) ) ;
#195 = CARTESIAN_POINT ( 'NONE',  ( 1.990144363140586139E-13, 2.699999999999989519, 57.00000000000000000 ) ) ;
#196 = APPROVAL_ROLE ( '' ) ;
#197 = CARTESIAN_POINT ( 'NONE',  ( 0.0000000000000000000, 0.0000000000000000000, 0.0000000000000000000 ) ) ;
#198 = VECTOR ( 'NONE', #96, 1000.000000000000000 ) ;
#199 = DATE_AND_TIME ( #12, #56 ) ;
#200 = DIRECTION ( 'NONE',  ( 0.0000000000000000000, 1.000000000000000000, 0.0000000000000000000 ) ) ;
#201 = ADVANCED_FACE ( 'NONE', ( #152 ), #298, .T. ) ;
#202 = FACE_OUTER_BOUND ( 'NONE', #276, .T. ) ;
#203 = LINE ( 'NONE', #259, #225 ) ;
#204 = LINE ( 'NONE', #285, #22 ) ;
#205 = CARTESIAN_POINT ( 'NONE',  ( 5.664312824167282589E-15, -1.986773491329671352E-16, 1.622323671374424237 ) ) ;
#206 = AXIS2_PLACEMENT_3D ( 'NONE', #45, #178, #34 ) ;
#207 = EDGE_CURVE ( 'NONE', #328, #88, #309, .T. ) ;
#208 = FACE_OUTER_BOUND ( 'NONE', #35, .T. ) ;
#209 = VECTOR ( 'NONE', #254, 999.9999999999998863 ) ;
#210 = EDGE_LOOP ( 'NONE', ( #271, #212, #14, #84 ) ) ;
#211 = EDGE_CURVE ( 'NONE', #237, #291, #231, .T. ) ;
#212 = ORIENTED_EDGE ( 'NONE', *, *, #105, .T. ) ;
#213 = LOCAL_TIME ( 15, 38, 5.000000000000000000, #85 ) ;
#214 = EDGE_CURVE ( 'NONE', #317, #138, #303, .T. ) ;
#215 = EDGE_LOOP ( 'NONE', ( #29, #159, #11 ) ) ;
#216 = DIRECTION ( 'NONE',  ( -3.491481338843133355E-15, 1.224646799147353207E-16, -1.000000000000000000 ) ) ;
#217 = ORIENTED_EDGE ( 'NONE', *, *, #321, .T. ) ;
#218 = CALENDAR_DATE ( 2021, 2, 9 ) ;
#219 = DATE_AND_TIME ( #70, #172 ) ;
#220 = DIRECTION ( 'NONE',  ( -4.275831445896958607E-31, -1.000000000000000000, -1.224646799147353207E-16 ) ) ;
#221 = ORIENTED_EDGE ( 'NONE', *, *, #57, .F. ) ;
#222 = APPROVAL_ROLE ( '' ) ;
#223 = DIRECTION ( 'NONE',  ( -3.491481338843133355E-15, 1.224646799147353207E-16, -1.000000000000000000 ) ) ;
#224 = DIRECTION ( 'NONE',  ( -3.491481338843133355E-15, 1.224646799147353207E-16, -1.000000000000000000 ) ) ;
#225 = VECTOR ( 'NONE', #147, 1000.000000000000000 ) ;
#226 = AXIS2_PLACEMENT_3D ( 'NONE', #284, #258, #21 ) ;
#227 = CARTESIAN_POINT ( 'NONE',  ( 3.226128757091054968E-13, 2.699999999999989519, 92.39999999999999147 ) ) ;
#228 = CARTESIAN_POINT ( 'NONE',  ( 1.990144363140586139E-13, -6.980486755139912911E-15, 57.00000000000000000 ) ) ;
#229 = DIRECTION ( 'NONE',  ( -3.491481338843133355E-15, 1.224646799147353207E-16, -1.000000000000000000 ) ) ;
#230 = FACE_OUTER_BOUND ( 'NONE', #215, .T. ) ;
#231 = CIRCLE ( 'NONE', #31, 2.699999999999996625 ) ;
#232 = EDGE_LOOP ( 'NONE', ( #273, #66, #164, #322 ) ) ;
#233 = EDGE_CURVE ( 'NONE', #291, #237, #97, .T. ) ;
#234 = DESIGN_CONTEXT ( 'detailed design', #252, 'design' ) ;
#235 = AXIS2_PLACEMENT_3D ( 'NONE', #157, #314, #263 ) ;
#236 = PERSON ( 'UNSPECIFIED', 'UNSPECIFIED', 'UNSPECIFIED', ('UNSPECIFIED'), ('UNSPECIFIED'), ('UNSPECIFIED') ) ;
#237 = VERTEX_POINT ( 'NONE', #280 ) ;
#238 = ADVANCED_FACE ( 'NONE', ( #202 ), #331, .T. ) ;
#239 = LOCAL_TIME ( 15, 38, 5.000000000000000000, #282 ) ;
#240 = ORIENTED_EDGE ( 'NONE', *, *, #171, .T. ) ;
#241 =( NAMED_UNIT ( * ) SI_UNIT ( $, .STERADIAN. ) SOLID_ANGLE_UNIT ( ) );
#242 = DIRECTION ( 'NONE',  ( 4.275831445896958607E-31, 1.000000000000000000, 1.224646799147353207E-16 ) ) ;
#243 = ADVANCED_FACE ( 'NONE', ( #140 ), #253, .T. ) ;
#244 = ORIENTED_EDGE ( 'NONE', *, *, #262, .F. ) ;
#245 = APPLICATION_PROTOCOL_DEFINITION ( 'international standard', 'config_control_design', 1994, #252 ) ;
#246 = AXIS2_PLACEMENT_3D ( 'NONE', #292, #216, #290 ) ;
#247 = DIRECTION ( 'NONE',  ( 0.0000000000000000000, 1.000000000000000000, 0.0000000000000000000 ) ) ;
#248 = ORIENTED_EDGE ( 'NONE', *, *, #214, .F. ) ;
#249 = APPROVAL_ROLE ( '' ) ;
#250 = CARTESIAN_POINT ( 'NONE',  ( 2.611443106473517594E-13, -2.700000000000012168, 92.39999999999999147 ) ) ;
#251 = CARTESIAN_POINT ( 'NONE',  ( 1.026700292048824689E-13, -2.700000000000004174, 57.00000000000000000 ) ) ;
#252 = APPLICATION_CONTEXT ( 'configuration controlled 3d designs of mechanical parts and assemblies' ) ;
#253 = PLANE ( 'NONE',  #107 ) ;
#254 = DIRECTION ( 'NONE',  ( 1.903218546456022717E-15, 0.8571673007021097801, 0.5150380749100585964 ) ) ;
#255 = APPROVAL_DATE_TIME ( #92, #110 ) ;
#256 =( NAMED_UNIT ( * ) PLANE_ANGLE_UNIT ( ) SI_UNIT ( $, .RADIAN. ) );
#257 = AXIS2_PLACEMENT_3D ( 'NONE', #205, #128, #305 ) ;
#258 = DIRECTION ( 'NONE',  ( -3.491481338843133355E-15, 1.224646799147353207E-16, -1.000000000000000000 ) ) ;
#259 = CARTESIAN_POINT ( 'NONE',  ( 1.154474490392175793E-30, 2.699999999999993072, 3.306546357697845352E-16 ) ) ;
#260 = CARTESIAN_POINT ( 'NONE',  ( 1.990144363140586139E-13, -6.980486755139912911E-15, 57.00000000000000000 ) ) ;
#261 = DIRECTION ( 'NONE',  ( -3.491481338843133355E-15, 1.224646799147353207E-16, -1.000000000000000000 ) ) ;
#262 = EDGE_CURVE ( 'NONE', #166, #138, #15, .T. ) ;
#263 = DIRECTION ( 'NONE',  ( 4.275831445896958607E-31, 1.000000000000000000, 1.224646799147353207E-16 ) ) ;
#264 = CC_DESIGN_APPROVAL ( #122, ( #184 ) ) ;
#265 = CC_DESIGN_PERSON_AND_ORGANIZATION_ASSIGNMENT ( #41, #306, ( #184 ) ) ;
#266 = EDGE_LOOP ( 'NONE', ( #132, #91 ) ) ;
#267 = VECTOR ( 'NONE', #223, 1000.000000000000000 ) ;
#268 = ADVANCED_FACE ( 'NONE', ( #68 ), #279, .T. ) ;
#269 = CONICAL_SURFACE ( 'NONE', #87, 2.100000000000000977, 0.7853981633974453924 ) ;
#270 = AXIS2_PLACEMENT_3D ( 'NONE', #197, #224, #242 ) ;
#271 = ORIENTED_EDGE ( 'NONE', *, *, #27, .T. ) ;
#272 = COORDINATED_UNIVERSAL_TIME_OFFSET ( 1, 0, .AHEAD. ) ;
#273 = ORIENTED_EDGE ( 'NONE', *, *, #293, .F. ) ;
#274 = PERSON_AND_ORGANIZATION ( #236, #311 ) ;
#275 = CARTESIAN_POINT ( 'NONE',  ( 1.990144363140586139E-13, 2.024675706593494907E-32, 57.00000000000000000 ) ) ;
#276 = EDGE_LOOP ( 'NONE', ( #60, #318, #244, #39 ) ) ;
#277 = DATE_AND_TIME ( #44, #213 ) ;
#278 = CIRCLE ( 'NONE', #246, 2.100000000000000977 ) ;
#279 = CYLINDRICAL_SURFACE ( 'NONE', #188, 2.699999999999993072 ) ;
#280 = CARTESIAN_POINT ( 'NONE',  ( 1.990144363140586139E-13, 2.699999999999989519, 57.00000000000000000 ) ) ;
#281 = DIRECTION ( 'NONE',  ( 0.0000000000000000000, 1.000000000000000000, 0.0000000000000000000 ) ) ;
#282 = COORDINATED_UNIVERSAL_TIME_OFFSET ( 1, 0, .AHEAD. ) ;
#283 = COORDINATED_UNIVERSAL_TIME_OFFSET ( 1, 0, .AHEAD. ) ;
#284 = CARTESIAN_POINT ( 'NONE',  ( 0.0000000000000000000, 0.0000000000000000000, 0.0000000000000000000 ) ) ;
#285 = CARTESIAN_POINT ( 'NONE',  ( 3.306546357697834012E-16, -2.699999999999993072, -3.306546357697856692E-16 ) ) ;
#286 = PRODUCT ( '53757', '53757', '', ( #67 ) ) ;
#287 = PLANE ( 'NONE',  #235 ) ;
#288 = DIRECTION ( 'NONE',  ( 0.0000000000000000000, 1.000000000000000000, 0.0000000000000000000 ) ) ;
#289 = ORIENTED_EDGE ( 'NONE', *, *, #103, .F. ) ;
#290 = DIRECTION ( 'NONE',  ( 0.0000000000000000000, 1.000000000000000000, 0.0000000000000000000 ) ) ;
#291 = VERTEX_POINT ( 'NONE', #5 ) ;
#292 = CARTESIAN_POINT ( 'NONE',  ( 3.247077645124113894E-13, -1.138921523207038456E-14, 93.00000000000000000 ) ) ;
#293 = EDGE_CURVE ( 'NONE', #62, #138, #204, .T. ) ;
#294 = ORIENTED_EDGE ( 'NONE', *, *, #321, .F. ) ;
#295 = VECTOR ( 'NONE', #37, 1000.000000000000114 ) ;
#296 = EDGE_LOOP ( 'NONE', ( #186, #221 ) ) ;
#297 = PERSON_AND_ORGANIZATION_ROLE ( 'creator' ) ;
#298 = CYLINDRICAL_SURFACE ( 'NONE', #270, 2.699999999999998845 ) ;
#299 = DATE_TIME_ROLE ( 'classification_date' ) ;
#300 = DIRECTION ( 'NONE',  ( 2.853229547240360441E-31, 1.000000000000000000, 1.606225440719272037E-16 ) ) ;
#301 = APPROVAL_STATUS ( 'not_yet_approved' ) ;
#302 = AXIS2_PLACEMENT_3D ( 'NONE', #25, #261, #200 ) ;
#303 = LINE ( 'NONE', #335, #126 ) ;
#304 = CC_DESIGN_PERSON_AND_ORGANIZATION_ASSIGNMENT ( #165, #145, ( #100 ) ) ;
#305 = DIRECTION ( 'NONE',  ( -2.853229547240360441E-31, -1.000000000000000000, -1.606225440719272037E-16 ) ) ;
#306 = PERSON_AND_ORGANIZATION_ROLE ( 'design_supplier' ) ;
#307 = CARTESIAN_POINT ( 'NONE',  ( 3.239542353425537974E-13, -2.100000000000012523, 93.00000000000000000 ) ) ;
#308 = DIRECTION ( 'NONE',  ( -3.491481338843133355E-15, 1.224646799147353207E-16, -1.000000000000000000 ) ) ;
#309 = LINE ( 'NONE', #65, #295 ) ;
#310 = ADVANCED_FACE ( 'NONE', ( #208 ), #287, .F. ) ;
#311 = ORGANIZATION ( 'UNSPECIFIED', 'UNSPECIFIED', '' ) ;
#312 = DIRECTION ( 'NONE',  ( -3.491481338843133355E-15, 1.224646799147353207E-16, -1.000000000000000000 ) ) ;
#313 = PRODUCT_DEFINITION_SHAPE ( 'NONE', 'NONE',  #100 ) ;
#314 = DIRECTION ( 'NONE',  ( -3.491481338843133355E-15, 1.224646799147353207E-16, -1.000000000000000000 ) ) ;
#315 = AXIS2_PLACEMENT_3D ( 'NONE', #326, #117, #300 ) ;
#316 = ADVANCED_FACE ( 'NONE', ( #79 ), #269, .T. ) ;
#317 = VERTEX_POINT ( 'NONE', #9 ) ;
#318 = ORIENTED_EDGE ( 'NONE', *, *, #293, .T. ) ;
#319 = PRODUCT_RELATED_PRODUCT_CATEGORY ( 'detail', '', ( #286 ) ) ;
#320 = APPROVAL_PERSON_ORGANIZATION ( #112, #122, #249 ) ;
#321 = EDGE_CURVE ( 'NONE', #328, #141, #278, .T. ) ;
#322 = ORIENTED_EDGE ( 'NONE', *, *, #51, .F. ) ;
#323 = ORIENTED_EDGE ( 'NONE', *, *, #148, .T. ) ;
#324 = CIRCLE ( 'NONE', #180, 2.699999999999989519 ) ;
#325 =( GEOMETRIC_REPRESENTATION_CONTEXT ( 3 ) GLOBAL_UNCERTAINTY_ASSIGNED_CONTEXT ( ( #28 ) ) GLOBAL_UNIT_ASSIGNED_CONTEXT ( ( #330, #256, #241 ) ) REPRESENTATION_CONTEXT ( 'NONE', 'WORKASPACE' ) );
#326 = CARTESIAN_POINT ( 'NONE',  ( 5.664312824167282589E-15, -1.986773491329671352E-16, 1.622323671374424237 ) ) ;
#327 = MANIFOLD_SOLID_BREP ( 'Corps-Déplacer/Copier1[2]', #52 ) ;
#328 = VERTEX_POINT ( 'NONE', #7 ) ;
#329 = MANIFOLD_SOLID_BREP ( 'Corps-Déplacer/Copier1[1]', #135 ) ;
#330 =( LENGTH_UNIT ( ) NAMED_UNIT ( * ) SI_UNIT ( .MILLI., .METRE. ) );
#331 = CYLINDRICAL_SURFACE ( 'NONE', #206, 2.699999999999993072 ) ;
#332 = CARTESIAN_POINT ( 'NONE',  ( 3.249649403402323559E-13, -2.100000000000012523, 93.00000000000000000 ) ) ;
#333 = APPROVAL_DATE_TIME ( #277, #137 ) ;
#334 = CC_DESIGN_SECURITY_CLASSIFICATION ( #8, ( #184 ) ) ;
#335 = CARTESIAN_POINT ( 'NONE',  ( 5.664312824167281800E-15, -2.699999999999989519, 1.622323671374423792 ) ) ;
#336 = DIRECTION ( 'NONE',  ( -3.491481338843133355E-15, 1.224646799147353207E-16, -1.000000000000000000 ) ) ;
#337 = LINE ( 'NONE', #19, #125 ) ;
ENDSEC;
END-ISO-10303-21;
