ISO-10303-21;
HEADER;
FILE_DESCRIPTION (( 'STEP AP203' ),
    '1' );
FILE_NAME ('53753.step',
    '2021-09-02T13:38:03',
    ( '' ),
    ( '' ),
    'SwSTEP 2.0',
    'SolidWorks 2019',
    '' );
FILE_SCHEMA (( 'CONFIG_CONTROL_DESIGN' ));
ENDSEC;

DATA;
#1 = DIRECTION ( 'NONE',  ( -3.491481338843133355E-15, 1.224646799147353207E-16, -1.000000000000000000 ) ) ;
#2 = ORIENTED_EDGE ( 'NONE', *, *, #214, .F. ) ;
#3 = DIRECTION ( 'NONE',  ( 0.0000000000000000000, 1.000000000000000000, 0.0000000000000000000 ) ) ;
#4 = PLANE ( 'NONE',  #306 ) ;
#5 = FACE_OUTER_BOUND ( 'NONE', #94, .T. ) ;
#6 = DESIGN_CONTEXT ( 'detailed design', #298, 'design' ) ;
#7 = DIRECTION ( 'NONE',  ( -3.491481338843133355E-15, 1.224646799147353207E-16, -1.000000000000000000 ) ) ;
#8 =( NAMED_UNIT ( * ) PLANE_ANGLE_UNIT ( ) SI_UNIT ( $, .RADIAN. ) );
#9 = CARTESIAN_POINT ( 'NONE',  ( 1.068957861474236586E-30, 2.499999999999992895, 3.061616997868373773E-16 ) ) ;
#10 = AXIS2_PLACEMENT_3D ( 'NONE', #250, #317, #336 ) ;
#11 = CALENDAR_DATE ( 2021, 2, 9 ) ;
#12 = CARTESIAN_POINT ( 'NONE',  ( 3.061616997868369829E-16, -2.499999999999997780, -3.061616997868390537E-16 ) ) ;
#13 = CC_DESIGN_APPROVAL ( #142, ( #44 ) ) ;
#14 = DATE_AND_TIME ( #323, #28 ) ;
#15 = PERSON_AND_ORGANIZATION ( #81, #137 ) ;
#16 = AXIS2_PLACEMENT_3D ( 'NONE', #42, #146, #310 ) ;
#17 = VERTEX_POINT ( 'NONE', #228 ) ;
#18 = COORDINATED_UNIVERSAL_TIME_OFFSET ( 1, 0, .AHEAD. ) ;
#19 = FACE_OUTER_BOUND ( 'NONE', #246, .T. ) ;
#20 = VECTOR ( 'NONE', #174, 1000.000000000000000 ) ;
#21 = APPROVAL_PERSON_ORGANIZATION ( #210, #252, #327 ) ;
#22 = CC_DESIGN_PERSON_AND_ORGANIZATION_ASSIGNMENT ( #116, #90, ( #44 ) ) ;
#23 = CARTESIAN_POINT ( 'NONE',  ( 2.401709296783099416E-13, -2.500000000000010658, 85.39999999999999147 ) ) ;
#24 = EDGE_CURVE ( 'NONE', #301, #89, #55, .T. ) ;
#25 = CARTESIAN_POINT ( 'NONE',  ( 0.0000000000000000000, 0.0000000000000000000, 0.0000000000000000000 ) ) ;
#26 = DIRECTION ( 'NONE',  ( -4.275831445896958607E-31, -1.000000000000000000, -1.224646799147353207E-16 ) ) ;
#27 = AXIS2_PLACEMENT_3D ( 'NONE', #87, #230, #213 ) ;
#28 = LOCAL_TIME ( 15, 38, 3.000000000000000000, #109 ) ;
#29 = CARTESIAN_POINT ( 'NONE',  ( 0.0000000000000000000, 0.0000000000000000000, 0.0000000000000000000 ) ) ;
#30 = EDGE_CURVE ( 'NONE', #220, #309, #77, .T. ) ;
#31 = PERSON_AND_ORGANIZATION ( #81, #137 ) ;
#32 = ADVANCED_FACE ( 'NONE', ( #140 ), #61, .T. ) ;
#33 = CC_DESIGN_APPROVAL ( #334, ( #119 ) ) ;
#34 = DIRECTION ( 'NONE',  ( 0.0000000000000000000, 1.000000000000000000, 0.0000000000000000000 ) ) ;
#35 = EDGE_CURVE ( 'NONE', #290, #89, #111, .T. ) ;
#36 = CARTESIAN_POINT ( 'NONE',  ( 1.815570296198429345E-13, 1.874699728327309420E-32, 52.00000000000000000 ) ) ;
#37 = CALENDAR_DATE ( 2021, 2, 9 ) ;
#38 = DIRECTION ( 'NONE',  ( 3.081487911019590064E-31, 1.000000000000000000, 8.673617379884071217E-17 ) ) ;
#39 = VECTOR ( 'NONE', #101, 1000.000000000000000 ) ;
#40 = ORIENTED_EDGE ( 'NONE', *, *, #184, .T. ) ;
#41 = MANIFOLD_SOLID_BREP ( 'Corps-Déplacer/Copier1[2]', #196 ) ;
#42 = CARTESIAN_POINT ( 'NONE',  ( 1.815570296198429345E-13, -6.368163355566236381E-15, 52.00000000000000000 ) ) ;
#43 = AXIS2_PLACEMENT_3D ( 'NONE', #270, #169, #38 ) ;
#44 = PRODUCT_DEFINITION_FORMATION_WITH_SPECIFIED_SOURCE ( 'ANY', '', #70, .NOT_KNOWN. ) ;
#45 = CARTESIAN_POINT ( 'NONE',  ( 1.815570296198429345E-13, 1.874699728327309420E-32, 52.00000000000000000 ) ) ;
#46 = DIRECTION ( 'NONE',  ( 0.0000000000000000000, 1.000000000000000000, 0.0000000000000000000 ) ) ;
#47 = LINE ( 'NONE', #251, #158 ) ;
#48 = ORIENTED_EDGE ( 'NONE', *, *, #95, .T. ) ;
#49 = DIRECTION ( 'NONE',  ( 0.0000000000000000000, 1.000000000000000000, 0.0000000000000000000 ) ) ;
#50 = CARTESIAN_POINT ( 'NONE',  ( 5.244734096451187319E-15, -1.839605084564510201E-16, 1.502151547568911116 ) ) ;
#51 = DIRECTION ( 'NONE',  ( -3.491481338843133355E-15, 1.224646799147353207E-16, -1.000000000000000000 ) ) ;
#52 = APPLICATION_PROTOCOL_DEFINITION ( 'international standard', 'config_control_design', 1994, #242 ) ;
#53 = CYLINDRICAL_SURFACE ( 'NONE', #122, 2.499999999999992895 ) ;
#54 = CARTESIAN_POINT ( 'NONE',  ( 3.002673951405094433E-13, 1.899999999999989697, 86.00000000000000000 ) ) ;
#55 = CIRCLE ( 'NONE', #16, 2.499999999999996003 ) ;
#56 = AXIS2_PLACEMENT_3D ( 'NONE', #286, #262, #34 ) ;
#57 = ADVANCED_FACE ( 'NONE', ( #82 ), #297, .T. ) ;
#58 = DATE_AND_TIME ( #11, #172 ) ;
#59 = AXIS2_PLACEMENT_3D ( 'NONE', #183, #154, #288 ) ;
#60 = ORIENTED_EDGE ( 'NONE', *, *, #225, .T. ) ;
#61 = CONICAL_SURFACE ( 'NONE', #27, 2.499999999999989786, 1.029744258676649649 ) ;
#62 = ORIENTED_EDGE ( 'NONE', *, *, #157, .F. ) ;
#63 = DATE_TIME_ROLE ( 'creation_date' ) ;
#64 = EDGE_CURVE ( 'NONE', #171, #272, #245, .T. ) ;
#65 = CC_DESIGN_SECURITY_CLASSIFICATION ( #259, ( #44 ) ) ;
#66 = EDGE_LOOP ( 'NONE', ( #234, #305, #72, #268 ) ) ;
#67 = DIRECTION ( 'NONE',  ( 4.275831445896958607E-31, 1.000000000000000000, 1.224646799147353207E-16 ) ) ;
#68 = CONICAL_SURFACE ( 'NONE', #168, 2.499999999999989786, 1.029744258676649649 ) ;
#69 = CARTESIAN_POINT ( 'NONE',  ( 5.244734096451186531E-15, -2.499999999999989786, 1.502151547568910894 ) ) ;
#70 = PRODUCT ( '53753', '53753', '', ( #205 ) ) ;
#71 = LINE ( 'NONE', #125, #93 ) ;
#72 = ORIENTED_EDGE ( 'NONE', *, *, #128, .T. ) ;
#73 = CARTESIAN_POINT ( 'NONE',  ( 2.981725063372035507E-13, -1.045848366471839522E-14, 85.39999999999999147 ) ) ;
#74 = DIRECTION ( 'NONE',  ( -3.491481338843133355E-15, 1.224646799147353207E-16, -1.000000000000000000 ) ) ;
#75 = CARTESIAN_POINT ( 'NONE',  ( 3.002673951405094433E-13, 1.899999999999989697, 86.00000000000000000 ) ) ;
#76 = CARTESIAN_POINT ( 'NONE',  ( 3.002673951405094433E-13, -1.053196247266723694E-14, 86.00000000000000000 ) ) ;
#77 = CIRCLE ( 'NONE', #292, 2.499999999999989786 ) ;
#78 =( GEOMETRIC_REPRESENTATION_CONTEXT ( 3 ) GLOBAL_UNCERTAINTY_ASSIGNED_CONTEXT ( ( #201 ) ) GLOBAL_UNIT_ASSIGNED_CONTEXT ( ( #173, #8, #258 ) ) REPRESENTATION_CONTEXT ( 'NONE', 'WORKASPACE' ) );
#79 = CARTESIAN_POINT ( 'NONE',  ( 3.002673951405094433E-13, 1.424771793528749127E-32, 86.00000000000000000 ) ) ;
#80 = ADVANCED_FACE ( 'NONE', ( #151 ), #254, .F. ) ;
#81 = PERSON ( 'UNSPECIFIED', 'UNSPECIFIED', 'UNSPECIFIED', ('UNSPECIFIED'), ('UNSPECIFIED'), ('UNSPECIFIED') ) ;
#82 = FACE_OUTER_BOUND ( 'NONE', #66, .T. ) ;
#83 = AXIS2_PLACEMENT_3D ( 'NONE', #156, #257, #46 ) ;
#84 = CIRCLE ( 'NONE', #337, 2.499999999999996003 ) ;
#85 = VERTEX_POINT ( 'NONE', #316 ) ;
#86 = COORDINATED_UNIVERSAL_TIME_OFFSET ( 1, 0, .AHEAD. ) ;
#87 = CARTESIAN_POINT ( 'NONE',  ( 5.244734096451187319E-15, -1.839605084564510201E-16, 1.502151547568911116 ) ) ;
#88 = PERSON_AND_ORGANIZATION ( #81, #137 ) ;
#89 = VERTEX_POINT ( 'NONE', #249 ) ;
#90 = PERSON_AND_ORGANIZATION_ROLE ( 'creator' ) ;
#91 = DATE_AND_TIME ( #332, #209 ) ;
#92 = FACE_OUTER_BOUND ( 'NONE', #311, .T. ) ;
#93 = VECTOR ( 'NONE', #1, 1000.000000000000000 ) ;
#94 = EDGE_LOOP ( 'NONE', ( #212, #132, #130, #135 ) ) ;
#95 = EDGE_CURVE ( 'NONE', #272, #17, #279, .T. ) ;
#96 = EDGE_LOOP ( 'NONE', ( #2, #236 ) ) ;
#97 = DIRECTION ( 'NONE',  ( -3.491481338843133355E-15, 1.224646799147353207E-16, -1.000000000000000000 ) ) ;
#98 = LINE ( 'NONE', #9, #326 ) ;
#99 = ORIENTED_EDGE ( 'NONE', *, *, #322, .F. ) ;
#100 = AXIS2_PLACEMENT_3D ( 'NONE', #29, #226, #103 ) ;
#101 = DIRECTION ( 'NONE',  ( -3.491481338843133355E-15, 1.224646799147353207E-16, -1.000000000000000000 ) ) ;
#102 = CARTESIAN_POINT ( 'NONE',  ( 0.0000000000000000000, 0.0000000000000000000, 0.0000000000000000000 ) ) ;
#103 = DIRECTION ( 'NONE',  ( 1.000000000000000000, 0.0000000000000000000, 0.0000000000000000000 ) ) ;
#104 = APPLICATION_PROTOCOL_DEFINITION ( 'international standard', 'config_control_design', 1994, #298 ) ;
#105 = CARTESIAN_POINT ( 'NONE',  ( 5.550895796238025190E-15, 2.499999999999989786, 1.502151547568911338 ) ) ;
#106 = CONICAL_SURFACE ( 'NONE', #232, 1.900000000000000355, 0.7853981633974452814 ) ;
#107 = PERSON_AND_ORGANIZATION_ROLE ( 'creator' ) ;
#108 = CC_DESIGN_PERSON_AND_ORGANIZATION_ASSIGNMENT ( #31, #107, ( #119 ) ) ;
#109 = COORDINATED_UNIVERSAL_TIME_OFFSET ( 1, 0, .AHEAD. ) ;
#110 = ORIENTED_EDGE ( 'NONE', *, *, #325, .F. ) ;
#111 = LINE ( 'NONE', #12, #238 ) ;
#112 = APPROVAL_DATE_TIME ( #58, #334 ) ;
#113 = DIRECTION ( 'NONE',  ( -3.491481338843133355E-15, 1.224646799147353207E-16, -1.000000000000000000 ) ) ;
#114 = AXIS2_PLACEMENT_3D ( 'NONE', #73, #51, #176 ) ;
#115 = CC_DESIGN_DATE_AND_TIME_ASSIGNMENT ( #91, #189, ( #259 ) ) ;
#116 = PERSON_AND_ORGANIZATION ( #81, #137 ) ;
#117 = VERTEX_POINT ( 'NONE', #25 ) ;
#118 = ORIENTED_EDGE ( 'NONE', *, *, #225, .F. ) ;
#119 = PRODUCT_DEFINITION ( 'UNKNOWN', '', #44, #6 ) ;
#120 = VECTOR ( 'NONE', #177, 1000.000000000000000 ) ;
#121 = CARTESIAN_POINT ( 'NONE',  ( 5.244734096451186531E-15, -2.499999999999989786, 1.502151547568910894 ) ) ;
#122 = AXIS2_PLACEMENT_3D ( 'NONE', #149, #74, #203 ) ;
#123 = DIRECTION ( 'NONE',  ( -3.491481338843133355E-15, 1.224646799147353207E-16, -1.000000000000000000 ) ) ;
#124 = LINE ( 'NONE', #282, #39 ) ;
#125 = CARTESIAN_POINT ( 'NONE',  ( 3.061616997868363913E-16, -2.499999999999992895, -3.061616997868384620E-16 ) ) ;
#126 = CIRCLE ( 'NONE', #10, 2.500000000000000000 ) ;
#127 = CARTESIAN_POINT ( 'NONE',  ( 3.002673951405094433E-13, -1.053196247266723694E-14, 86.00000000000000000 ) ) ;
#128 = EDGE_CURVE ( 'NONE', #17, #301, #124, .T. ) ;
#129 = CARTESIAN_POINT ( 'NONE',  ( 1.815570296198429345E-13, -6.368163355566236381E-15, 52.00000000000000000 ) ) ;
#130 = ORIENTED_EDGE ( 'NONE', *, *, #24, .F. ) ;
#131 = CC_DESIGN_PERSON_AND_ORGANIZATION_ASSIGNMENT ( #15, #229, ( #70 ) ) ;
#132 = ORIENTED_EDGE ( 'NONE', *, *, #35, .T. ) ;
#133 = PERSON_AND_ORGANIZATION ( #81, #137 ) ;
#134 = ORIENTED_EDGE ( 'NONE', *, *, #64, .T. ) ;
#135 = ORIENTED_EDGE ( 'NONE', *, *, #128, .F. ) ;
#136 = CARTESIAN_POINT ( 'NONE',  ( 0.0000000000000000000, 0.0000000000000000000, 0.0000000000000000000 ) ) ;
#137 = ORGANIZATION ( 'UNSPECIFIED', 'UNSPECIFIED', '' ) ;
#138 = LINE ( 'NONE', #105, #265 ) ;
#139 = ORIENTED_EDGE ( 'NONE', *, *, #307, .T. ) ;
#140 = FACE_OUTER_BOUND ( 'NONE', #206, .T. ) ;
#141 = DIRECTION ( 'NONE',  ( 3.491481338843133355E-15, -1.224646799147353207E-16, 1.000000000000000000 ) ) ;
#142 = APPROVAL ( #302, 'UNSPECIFIED' ) ;
#143 = DATE_AND_TIME ( #37, #145 ) ;
#144 = PERSON_AND_ORGANIZATION ( #81, #137 ) ;
#145 = LOCAL_TIME ( 15, 38, 3.000000000000000000, #331 ) ;
#146 = DIRECTION ( 'NONE',  ( -3.491481338843133355E-15, 1.224646799147353207E-16, -1.000000000000000000 ) ) ;
#147 = AXIS2_PLACEMENT_3D ( 'NONE', #127, #221, #3 ) ;
#148 = ADVANCED_FACE ( 'NONE', ( #283 ), #299, .T. ) ;
#149 = CARTESIAN_POINT ( 'NONE',  ( 0.0000000000000000000, 0.0000000000000000000, 0.0000000000000000000 ) ) ;
#150 = CARTESIAN_POINT ( 'NONE',  ( 9.370704355793367158E-14, -2.500000000000002665, 52.00000000000000000 ) ) ;
#151 = FACE_OUTER_BOUND ( 'NONE', #304, .T. ) ;
#152 = DIRECTION ( 'NONE',  ( -3.491481338843133355E-15, 1.224646799147353207E-16, -1.000000000000000000 ) ) ;
#153 = CYLINDRICAL_SURFACE ( 'NONE', #202, 2.499999999999997780 ) ;
#154 = DIRECTION ( 'NONE',  ( -3.491481338843133355E-15, 1.224646799147353207E-16, -1.000000000000000000 ) ) ;
#155 = CARTESIAN_POINT ( 'NONE',  ( 1.815570296198429345E-13, 2.499999999999989786, 52.00000000000000000 ) ) ;
#156 = CARTESIAN_POINT ( 'NONE',  ( 3.002673951405094433E-13, -1.053196247266723694E-14, 86.00000000000000000 ) ) ;
#157 = EDGE_CURVE ( 'NONE', #290, #17, #319, .T. ) ;
#158 = VECTOR ( 'NONE', #318, 1000.000000000000000 ) ;
#159 = ADVANCED_BREP_SHAPE_REPRESENTATION ( '53753', ( #260, #41, #100 ), #78 ) ;
#160 = ORIENTED_EDGE ( 'NONE', *, *, #322, .T. ) ;
#161 = CALENDAR_DATE ( 2021, 2, 9 ) ;
#162 = EDGE_LOOP ( 'NONE', ( #275, #134, #48, #62 ) ) ;
#163 = APPROVAL_PERSON_ORGANIZATION ( #88, #142, #269 ) ;
#164 = CC_DESIGN_PERSON_AND_ORGANIZATION_ASSIGNMENT ( #144, #235, ( #259 ) ) ;
#165 = PRODUCT_RELATED_PRODUCT_CATEGORY ( 'detail', '', ( #70 ) ) ;
#166 = PERSON_AND_ORGANIZATION ( #81, #137 ) ;
#167 = APPROVAL_STATUS ( 'not_yet_approved' ) ;
#168 = AXIS2_PLACEMENT_3D ( 'NONE', #276, #241, #274 ) ;
#169 = DIRECTION ( 'NONE',  ( -3.491481338843133355E-15, 1.224646799147353207E-16, -1.000000000000000000 ) ) ;
#170 = PLANE ( 'NONE',  #227 ) ;
#171 = VERTEX_POINT ( 'NONE', #223 ) ;
#172 = LOCAL_TIME ( 15, 38, 3.000000000000000000, #295 ) ;
#173 =( LENGTH_UNIT ( ) NAMED_UNIT ( * ) SI_UNIT ( .MILLI., .METRE. ) );
#174 = DIRECTION ( 'NONE',  ( 1.798245827342160317E-15, -0.8571673007021098911, 0.5150380749100582634 ) ) ;
#175 = DIRECTION ( 'NONE',  ( 0.0000000000000000000, 1.000000000000000000, 0.0000000000000000000 ) ) ;
#176 = DIRECTION ( 'NONE',  ( 0.0000000000000000000, 1.000000000000000000, 0.0000000000000000000 ) ) ;
#177 = DIRECTION ( 'NONE',  ( -2.468850131082272443E-15, 0.7071067811865454633, -0.7071067811865495711 ) ) ;
#178 = DIRECTION ( 'NONE',  ( 0.0000000000000000000, 1.000000000000000000, 0.0000000000000000000 ) ) ;
#179 = CIRCLE ( 'NONE', #273, 2.499999999999996003 ) ;
#180 = ADVANCED_FACE ( 'NONE', ( #5 ), #153, .T. ) ;
#181 = CARTESIAN_POINT ( 'NONE',  ( 1.815570296198429345E-13, -6.368163355566236381E-15, 52.00000000000000000 ) ) ;
#182 = ORIENTED_EDGE ( 'NONE', *, *, #325, .T. ) ;
#183 = CARTESIAN_POINT ( 'NONE',  ( 0.0000000000000000000, 0.0000000000000000000, 0.0000000000000000000 ) ) ;
#184 = EDGE_CURVE ( 'NONE', #117, #220, #312, .T. ) ;
#185 = DIRECTION ( 'NONE',  ( 4.275831445896959482E-31, 1.000000000000000000, 1.224646799147353454E-16 ) ) ;
#186 = CIRCLE ( 'NONE', #43, 2.499999999999989786 ) ;
#187 = ORIENTED_EDGE ( 'NONE', *, *, #95, .F. ) ;
#188 = ORIENTED_EDGE ( 'NONE', *, *, #296, .T. ) ;
#189 = DATE_TIME_ROLE ( 'classification_date' ) ;
#190 = ORIENTED_EDGE ( 'NONE', *, *, #30, .T. ) ;
#191 = ORIENTED_EDGE ( 'NONE', *, *, #278, .F. ) ;
#192 = DIRECTION ( 'NONE',  ( -3.491481338843133355E-15, 1.224646799147353207E-16, -1.000000000000000000 ) ) ;
#193 = EDGE_LOOP ( 'NONE', ( #211, #256, #264, #187 ) ) ;
#194 = DIRECTION ( 'NONE',  ( 4.275831445896959482E-31, 1.000000000000000000, 1.224646799147353454E-16 ) ) ;
#195 = ADVANCED_FACE ( 'NONE', ( #224 ), #284, .T. ) ;
#196 = CLOSED_SHELL ( 'NONE', ( #195, #32, #244, #248, #237 ) ) ;
#197 = EDGE_LOOP ( 'NONE', ( #291, #99 ) ) ;
#198 = DIRECTION ( 'NONE',  ( -3.491481338843133355E-15, 1.224646799147353207E-16, -1.000000000000000000 ) ) ;
#199 = PRODUCT_DEFINITION_SHAPE ( 'NONE', 'NONE',  #119 ) ;
#200 = DIRECTION ( 'NONE',  ( 3.491481338843133355E-15, -1.224646799147353207E-16, 1.000000000000000000 ) ) ;
#201 = UNCERTAINTY_MEASURE_WITH_UNIT (LENGTH_MEASURE( 1.000000000000000082E-05 ), #173, 'distance_accuracy_value', 'NONE');
#202 = AXIS2_PLACEMENT_3D ( 'NONE', #102, #97, #194 ) ;
#203 = DIRECTION ( 'NONE',  ( 4.275831445896958607E-31, 1.000000000000000000, 1.224646799147352961E-16 ) ) ;
#204 = DIRECTION ( 'NONE',  ( 1.903218546456022717E-15, 0.8571673007021097801, 0.5150380749100585964 ) ) ;
#205 = MECHANICAL_CONTEXT ( 'NONE', #242, 'mechanical' ) ;
#206 = EDGE_LOOP ( 'NONE', ( #207, #182, #60 ) ) ;
#207 = ORIENTED_EDGE ( 'NONE', *, *, #184, .F. ) ;
#208 = AXIS2_PLACEMENT_3D ( 'NONE', #136, #328, #185 ) ;
#209 = LOCAL_TIME ( 15, 38, 3.000000000000000000, #18 ) ;
#210 = PERSON_AND_ORGANIZATION ( #81, #137 ) ;
#211 = ORIENTED_EDGE ( 'NONE', *, *, #214, .T. ) ;
#212 = ORIENTED_EDGE ( 'NONE', *, *, #219, .T. ) ;
#213 = DIRECTION ( 'NONE',  ( -3.081487911019590064E-31, -1.000000000000000000, -8.673617379884071217E-17 ) ) ;
#214 = EDGE_CURVE ( 'NONE', #272, #171, #222, .T. ) ;
#215 = ORIENTED_EDGE ( 'NONE', *, *, #24, .T. ) ;
#216 = VERTEX_POINT ( 'NONE', #150 ) ;
#217 = APPROVAL_PERSON_ORGANIZATION ( #133, #334, #289 ) ;
#218 = CLOSED_SHELL ( 'NONE', ( #148, #180, #80, #57, #271, #335 ) ) ;
#219 = EDGE_CURVE ( 'NONE', #17, #290, #126, .T. ) ;
#220 = VERTEX_POINT ( 'NONE', #121 ) ;
#221 = DIRECTION ( 'NONE',  ( -3.491481338843133355E-15, 1.224646799147353207E-16, -1.000000000000000000 ) ) ;
#222 = CIRCLE ( 'NONE', #83, 1.900000000000000355 ) ;
#223 = CARTESIAN_POINT ( 'NONE',  ( 2.994893730346689093E-13, -1.900000000000011013, 86.00000000000000000 ) ) ;
#224 = FACE_OUTER_BOUND ( 'NONE', #231, .T. ) ;
#225 = EDGE_CURVE ( 'NONE', #309, #220, #186, .T. ) ;
#226 = DIRECTION ( 'NONE',  ( 0.0000000000000000000, 0.0000000000000000000, 1.000000000000000000 ) ) ;
#227 = AXIS2_PLACEMENT_3D ( 'NONE', #36, #141, #333 ) ;
#228 = CARTESIAN_POINT ( 'NONE',  ( 2.981725063372035507E-13, 2.499999999999989786, 85.39999999999999147 ) ) ;
#229 = PERSON_AND_ORGANIZATION_ROLE ( 'design_owner' ) ;
#230 = DIRECTION ( 'NONE',  ( 3.491481338843133355E-15, -1.224646799147353207E-16, 1.000000000000000000 ) ) ;
#231 = EDGE_LOOP ( 'NONE', ( #139, #277, #118, #267 ) ) ;
#232 = AXIS2_PLACEMENT_3D ( 'NONE', #76, #247, #255 ) ;
#233 = PERSON_AND_ORGANIZATION_ROLE ( 'design_supplier' ) ;
#234 = ORIENTED_EDGE ( 'NONE', *, *, #35, .F. ) ;
#235 = PERSON_AND_ORGANIZATION_ROLE ( 'classification_officer' ) ;
#236 = ORIENTED_EDGE ( 'NONE', *, *, #64, .F. ) ;
#237 = ADVANCED_FACE ( 'NONE', ( #240 ), #170, .T. ) ;
#238 = VECTOR ( 'NONE', #294, 1000.000000000000000 ) ;
#239 = APPROVAL_DATE_TIME ( #143, #142 ) ;
#240 = FACE_OUTER_BOUND ( 'NONE', #197, .T. ) ;
#241 = DIRECTION ( 'NONE',  ( 3.491481338843133355E-15, -1.224646799147353207E-16, 1.000000000000000000 ) ) ;
#242 = APPLICATION_CONTEXT ( 'configuration controlled 3d designs of mechanical parts and assemblies' ) ;
#243 = CC_DESIGN_DATE_AND_TIME_ASSIGNMENT ( #14, #63, ( #119 ) ) ;
#244 = ADVANCED_FACE ( 'NONE', ( #92 ), #68, .T. ) ;
#245 = CIRCLE ( 'NONE', #300, 1.900000000000000355 ) ;
#246 = EDGE_LOOP ( 'NONE', ( #191, #160, #281, #315 ) ) ;
#247 = DIRECTION ( 'NONE',  ( -3.491481338843133355E-15, 1.224646799147353207E-16, -1.000000000000000000 ) ) ;
#248 = ADVANCED_FACE ( 'NONE', ( #19 ), #53, .T. ) ;
#249 = CARTESIAN_POINT ( 'NONE',  ( 2.401709296783100426E-13, -2.500000000000002665, 52.00000000000000000 ) ) ;
#250 = CARTESIAN_POINT ( 'NONE',  ( 2.981725063372035507E-13, -1.045848366471839522E-14, 85.39999999999999147 ) ) ;
#251 = CARTESIAN_POINT ( 'NONE',  ( 3.005000780323474174E-13, -1.900000000000011013, 86.00000000000000000 ) ) ;
#252 = APPROVAL ( #167, 'UNSPECIFIED' ) ;
#253 = EDGE_CURVE ( 'NONE', #85, #309, #98, .T. ) ;
#254 = PLANE ( 'NONE',  #263 ) ;
#255 = DIRECTION ( 'NONE',  ( 0.0000000000000000000, 1.000000000000000000, 0.0000000000000000000 ) ) ;
#256 = ORIENTED_EDGE ( 'NONE', *, *, #314, .T. ) ;
#257 = DIRECTION ( 'NONE',  ( -3.491481338843133355E-15, 1.224646799147353207E-16, -1.000000000000000000 ) ) ;
#258 =( NAMED_UNIT ( * ) SI_UNIT ( $, .STERADIAN. ) SOLID_ANGLE_UNIT ( ) );
#259 = SECURITY_CLASSIFICATION ( '', '', #329 ) ;
#260 = MANIFOLD_SOLID_BREP ( 'Corps-Déplacer/Copier1[1]', #218 ) ;
#261 = DATE_AND_TIME ( #161, #313 ) ;
#262 = DIRECTION ( 'NONE',  ( -3.491481338843133355E-15, 1.224646799147353207E-16, -1.000000000000000000 ) ) ;
#263 = AXIS2_PLACEMENT_3D ( 'NONE', #45, #200, #26 ) ;
#264 = ORIENTED_EDGE ( 'NONE', *, *, #219, .F. ) ;
#265 = VECTOR ( 'NONE', #204, 999.9999999999998863 ) ;
#266 = CARTESIAN_POINT ( 'NONE',  ( 3.002673951405094433E-13, -1.053196247266723694E-14, 86.00000000000000000 ) ) ;
#267 = ORIENTED_EDGE ( 'NONE', *, *, #253, .F. ) ;
#268 = ORIENTED_EDGE ( 'NONE', *, *, #296, .F. ) ;
#269 = APPROVAL_ROLE ( '' ) ;
#270 = CARTESIAN_POINT ( 'NONE',  ( 5.244734096451187319E-15, -1.839605084564510201E-16, 1.502151547568911116 ) ) ;
#271 = ADVANCED_FACE ( 'NONE', ( #321 ), #106, .T. ) ;
#272 = VERTEX_POINT ( 'NONE', #54 ) ;
#273 = AXIS2_PLACEMENT_3D ( 'NONE', #129, #7, #175 ) ;
#274 = DIRECTION ( 'NONE',  ( -3.081487911019590064E-31, -1.000000000000000000, -8.673617379884071217E-17 ) ) ;
#275 = ORIENTED_EDGE ( 'NONE', *, *, #314, .F. ) ;
#276 = CARTESIAN_POINT ( 'NONE',  ( 5.244734096451187319E-15, -1.839605084564510201E-16, 1.502151547568911116 ) ) ;
#277 = ORIENTED_EDGE ( 'NONE', *, *, #278, .T. ) ;
#278 = EDGE_CURVE ( 'NONE', #216, #220, #71, .T. ) ;
#279 = LINE ( 'NONE', #75, #120 ) ;
#280 = CARTESIAN_POINT ( 'NONE',  ( 5.550895796238025190E-15, 2.499999999999989786, 1.502151547568911338 ) ) ;
#281 = ORIENTED_EDGE ( 'NONE', *, *, #253, .T. ) ;
#282 = CARTESIAN_POINT ( 'NONE',  ( 1.068957861474238863E-30, 2.499999999999997780, 3.061616997868380676E-16 ) ) ;
#283 = FACE_OUTER_BOUND ( 'NONE', #193, .T. ) ;
#284 = CYLINDRICAL_SURFACE ( 'NONE', #59, 2.499999999999992895 ) ;
#285 = CIRCLE ( 'NONE', #56, 2.499999999999996003 ) ;
#286 = CARTESIAN_POINT ( 'NONE',  ( 1.815570296198429345E-13, -6.368163355566236381E-15, 52.00000000000000000 ) ) ;
#287 = FACE_OUTER_BOUND ( 'NONE', #96, .T. ) ;
#288 = DIRECTION ( 'NONE',  ( 4.275831445896958607E-31, 1.000000000000000000, 1.224646799147352961E-16 ) ) ;
#289 = APPROVAL_ROLE ( '' ) ;
#290 = VERTEX_POINT ( 'NONE', #23 ) ;
#291 = ORIENTED_EDGE ( 'NONE', *, *, #307, .F. ) ;
#292 = AXIS2_PLACEMENT_3D ( 'NONE', #50, #198, #324 ) ;
#293 = CC_DESIGN_APPROVAL ( #252, ( #259 ) ) ;
#294 = DIRECTION ( 'NONE',  ( -3.491481338843133355E-15, 1.224646799147353207E-16, -1.000000000000000000 ) ) ;
#295 = COORDINATED_UNIVERSAL_TIME_OFFSET ( 1, 0, .AHEAD. ) ;
#296 = EDGE_CURVE ( 'NONE', #89, #301, #84, .T. ) ;
#297 = CYLINDRICAL_SURFACE ( 'NONE', #208, 2.499999999999997780 ) ;
#298 = APPLICATION_CONTEXT ( 'configuration controlled 3d designs of mechanical parts and assemblies' ) ;
#299 = CONICAL_SURFACE ( 'NONE', #147, 1.900000000000000355, 0.7853981633974452814 ) ;
#300 = AXIS2_PLACEMENT_3D ( 'NONE', #266, #113, #49 ) ;
#301 = VERTEX_POINT ( 'NONE', #155 ) ;
#302 = APPROVAL_STATUS ( 'not_yet_approved' ) ;
#303 = CC_DESIGN_PERSON_AND_ORGANIZATION_ASSIGNMENT ( #166, #233, ( #44 ) ) ;
#304 = EDGE_LOOP ( 'NONE', ( #215, #188 ) ) ;
#305 = ORIENTED_EDGE ( 'NONE', *, *, #157, .T. ) ;
#306 = AXIS2_PLACEMENT_3D ( 'NONE', #79, #192, #67 ) ;
#307 = EDGE_CURVE ( 'NONE', #85, #216, #179, .T. ) ;
#308 = SHAPE_DEFINITION_REPRESENTATION ( #199, #159 ) ;
#309 = VERTEX_POINT ( 'NONE', #280 ) ;
#310 = DIRECTION ( 'NONE',  ( 0.0000000000000000000, 1.000000000000000000, 0.0000000000000000000 ) ) ;
#311 = EDGE_LOOP ( 'NONE', ( #110, #40, #190 ) ) ;
#312 = LINE ( 'NONE', #69, #20 ) ;
#313 = LOCAL_TIME ( 15, 38, 3.000000000000000000, #86 ) ;
#314 = EDGE_CURVE ( 'NONE', #171, #290, #47, .T. ) ;
#315 = ORIENTED_EDGE ( 'NONE', *, *, #30, .F. ) ;
#316 = CARTESIAN_POINT ( 'NONE',  ( 1.815570296198429345E-13, 2.499999999999989786, 52.00000000000000000 ) ) ;
#317 = DIRECTION ( 'NONE',  ( -3.491481338843133355E-15, 1.224646799147353207E-16, -1.000000000000000000 ) ) ;
#318 = DIRECTION ( 'NONE',  ( -2.382254525458724175E-15, -0.7071067811865452413, -0.7071067811865497932 ) ) ;
#319 = CIRCLE ( 'NONE', #114, 2.500000000000000000 ) ;
#320 = APPROVAL_STATUS ( 'not_yet_approved' ) ;
#321 = FACE_OUTER_BOUND ( 'NONE', #162, .T. ) ;
#322 = EDGE_CURVE ( 'NONE', #216, #85, #285, .T. ) ;
#323 = CALENDAR_DATE ( 2021, 2, 9 ) ;
#324 = DIRECTION ( 'NONE',  ( 3.081487911019590064E-31, 1.000000000000000000, 8.673617379884071217E-17 ) ) ;
#325 = EDGE_CURVE ( 'NONE', #117, #309, #138, .T. ) ;
#326 = VECTOR ( 'NONE', #152, 1000.000000000000000 ) ;
#327 = APPROVAL_ROLE ( '' ) ;
#328 = DIRECTION ( 'NONE',  ( -3.491481338843133355E-15, 1.224646799147353207E-16, -1.000000000000000000 ) ) ;
#329 = SECURITY_CLASSIFICATION_LEVEL ( 'unclassified' ) ;
#330 = APPROVAL_DATE_TIME ( #261, #252 ) ;
#331 = COORDINATED_UNIVERSAL_TIME_OFFSET ( 1, 0, .AHEAD. ) ;
#332 = CALENDAR_DATE ( 2021, 2, 9 ) ;
#333 = DIRECTION ( 'NONE',  ( -4.275831445896958607E-31, -1.000000000000000000, -1.224646799147353207E-16 ) ) ;
#334 = APPROVAL ( #320, 'UNSPECIFIED' ) ;
#335 = ADVANCED_FACE ( 'NONE', ( #287 ), #4, .F. ) ;
#336 = DIRECTION ( 'NONE',  ( 0.0000000000000000000, 1.000000000000000000, 0.0000000000000000000 ) ) ;
#337 = AXIS2_PLACEMENT_3D ( 'NONE', #181, #123, #178 ) ;
ENDSEC;
END-ISO-10303-21;
