ISO-10303-21;
HEADER;
FILE_DESCRIPTION (( 'STEP AP203' ),
    '1' );
FILE_NAME ('53749.step',
    '2021-09-02T13:38:00',
    ( '' ),
    ( '' ),
    'SwSTEP 2.0',
    'SolidWorks 2019',
    '' );
FILE_SCHEMA (( 'CONFIG_CONTROL_DESIGN' ));
ENDSEC;

DATA;
#1 = ORIENTED_EDGE ( 'NONE', *, *, #257, .F. ) ;
#2 = ORIENTED_EDGE ( 'NONE', *, *, #105, .F. ) ;
#3 = AXIS2_PLACEMENT_3D ( 'NONE', #165, #275, #42 ) ;
#4 = DIRECTION ( 'NONE',  ( -3.491481338843133355E-15, 1.224646799147353207E-16, -1.000000000000000000 ) ) ;
#5 = ORIENTED_EDGE ( 'NONE', *, *, #334, .T. ) ;
#6 = ORIENTED_EDGE ( 'NONE', *, *, #205, .F. ) ;
#7 = ADVANCED_FACE ( 'NONE', ( #38 ), #307, .T. ) ;
#8 = ORIENTED_EDGE ( 'NONE', *, *, #276, .T. ) ;
#9 = LINE ( 'NONE', #297, #231 ) ;
#10 = VERTEX_POINT ( 'NONE', #159 ) ;
#11 = CIRCLE ( 'NONE', #3, 2.299999999999996270 ) ;
#12 = CARTESIAN_POINT ( 'NONE',  ( 0.0000000000000000000, 0.0000000000000000000, 0.0000000000000000000 ) ) ;
#13 = ORIENTED_EDGE ( 'NONE', *, *, #205, .T. ) ;
#14 = DIRECTION ( 'NONE',  ( -3.491481338843133355E-15, 1.224646799147353207E-16, -1.000000000000000000 ) ) ;
#15 = CC_DESIGN_PERSON_AND_ORGANIZATION_ASSIGNMENT ( #63, #142, ( #330 ) ) ;
#16 = CARTESIAN_POINT ( 'NONE',  ( 1.640996229256272803E-13, 1.724723750061125028E-32, 47.00000000000000000 ) ) ;
#17 = LOCAL_TIME ( 15, 38, 0.0000000000000000000, #332 ) ;
#18 = DATE_AND_TIME ( #335, #98 ) ;
#19 = CARTESIAN_POINT ( 'NONE',  ( 2.816687638038900716E-16, -2.299999999999998046, -2.816687638038919945E-16 ) ) ;
#20 = APPROVAL_ROLE ( '' ) ;
#21 = DIRECTION ( 'NONE',  ( 0.0000000000000000000, 1.000000000000000000, 0.0000000000000000000 ) ) ;
#22 = DIRECTION ( 'NONE',  ( -3.491481338843133355E-15, 1.224646799147353207E-16, -1.000000000000000000 ) ) ;
#23 = VECTOR ( 'NONE', #254, 1000.000000000000000 ) ;
#24 = CONICAL_SURFACE ( 'NONE', #294, 1.800000000000000266, 0.7853981633974476129 ) ;
#25 = VERTEX_POINT ( 'NONE', #40 ) ;
#26 = CARTESIAN_POINT ( 'NONE',  ( 0.0000000000000000000, 0.0000000000000000000, 0.0000000000000000000 ) ) ;
#27 = ADVANCED_FACE ( 'NONE', ( #325 ), #109, .T. ) ;
#28 = EDGE_LOOP ( 'NONE', ( #49, #177, #255, #6 ) ) ;
#29 = PRODUCT_DEFINITION_SHAPE ( 'NONE', 'NONE',  #158 ) ;
#30 = CARTESIAN_POINT ( 'NONE',  ( 2.793185071074506684E-13, 1.349783804395657341E-32, 80.00000000000000000 ) ) ;
#31 = CARTESIAN_POINT ( 'NONE',  ( 0.0000000000000000000, 0.0000000000000000000, 0.0000000000000000000 ) ) ;
#32 = EDGE_LOOP ( 'NONE', ( #216, #295, #210, #182 ) ) ;
#33 = EDGE_CURVE ( 'NONE', #175, #249, #242, .T. ) ;
#34 = CARTESIAN_POINT ( 'NONE',  ( 2.793185071074506684E-13, -9.797174393178826052E-15, 80.00000000000000000 ) ) ;
#35 = CC_DESIGN_APPROVAL ( #97, ( #158 ) ) ;
#36 = EDGE_LOOP ( 'NONE', ( #202, #129, #302 ) ) ;
#37 = FACE_OUTER_BOUND ( 'NONE', #36, .T. ) ;
#38 = FACE_OUTER_BOUND ( 'NONE', #265, .T. ) ;
#39 = CC_DESIGN_APPROVAL ( #70, ( #330 ) ) ;
#40 = CARTESIAN_POINT ( 'NONE',  ( 2.211178634456320775E-13, -2.300000000000001599, 47.00000000000000000 ) ) ;
#41 = AXIS2_PLACEMENT_3D ( 'NONE', #185, #86, #108 ) ;
#42 = DIRECTION ( 'NONE',  ( 0.0000000000000000000, 1.000000000000000000, 0.0000000000000000000 ) ) ;
#43 = DIRECTION ( 'NONE',  ( -3.491481338843133355E-15, 1.224646799147353207E-16, -1.000000000000000000 ) ) ;
#44 = VECTOR ( 'NONE', #102, 1000.000000000000000 ) ;
#45 = DATE_AND_TIME ( #90, #17 ) ;
#46 = CARTESIAN_POINT ( 'NONE',  ( 9.834412325562973791E-31, 2.299999999999993161, 2.816687638038904167E-16 ) ) ;
#47 = ORIENTED_EDGE ( 'NONE', *, *, #252, .T. ) ;
#48 = CC_DESIGN_PERSON_AND_ORGANIZATION_ASSIGNMENT ( #198, #229, ( #312 ) ) ;
#49 = ORIENTED_EDGE ( 'NONE', *, *, #33, .T. ) ;
#50 = APPLICATION_CONTEXT ( 'configuration controlled 3d designs of mechanical parts and assemblies' ) ;
#51 = EDGE_LOOP ( 'NONE', ( #8, #47 ) ) ;
#52 = DATE_AND_TIME ( #130, #78 ) ;
#53 = DIRECTION ( 'NONE',  ( 0.0000000000000000000, 1.000000000000000000, 0.0000000000000000000 ) ) ;
#54 = PERSON_AND_ORGANIZATION ( #324, #56 ) ;
#55 = DIRECTION ( 'NONE',  ( 0.0000000000000000000, 1.000000000000000000, 0.0000000000000000000 ) ) ;
#56 = ORGANIZATION ( 'UNSPECIFIED', 'UNSPECIFIED', '' ) ;
#57 = CARTESIAN_POINT ( 'NONE',  ( 2.775727664380291081E-13, -9.735942053221458478E-15, 79.50000000000000000 ) ) ;
#58 = EDGE_LOOP ( 'NONE', ( #2, #137, #148 ) ) ;
#59 = CARTESIAN_POINT ( 'NONE',  ( 2.793185071074506684E-13, -9.797174393178826052E-15, 80.00000000000000000 ) ) ;
#60 = FACE_OUTER_BOUND ( 'NONE', #32, .T. ) ;
#61 = AXIS2_PLACEMENT_3D ( 'NONE', #336, #279, #169 ) ;
#62 = EDGE_CURVE ( 'NONE', #249, #175, #88, .T. ) ;
#63 = PERSON_AND_ORGANIZATION ( #324, #56 ) ;
#64 = CARTESIAN_POINT ( 'NONE',  ( 1.640996229256272803E-13, 2.299999999999990496, 47.00000000000000000 ) ) ;
#65 = PERSON_AND_ORGANIZATION_ROLE ( 'design_supplier' ) ;
#66 = AXIS2_PLACEMENT_3D ( 'NONE', #247, #14, #113 ) ;
#67 = SHAPE_DEFINITION_REPRESENTATION ( #29, #209 ) ;
#68 = PLANE ( 'NONE',  #250 ) ;
#69 = VERTEX_POINT ( 'NONE', #268 ) ;
#70 = APPROVAL ( #157, 'UNSPECIFIED' ) ;
#71 = ORIENTED_EDGE ( 'NONE', *, *, #62, .F. ) ;
#72 = VECTOR ( 'NONE', #43, 1000.000000000000000 ) ;
#73 = PERSON_AND_ORGANIZATION ( #324, #56 ) ;
#74 = FACE_OUTER_BOUND ( 'NONE', #269, .T. ) ;
#75 = MANIFOLD_SOLID_BREP ( 'Corps-Déplacer/Copier1[1]', #92 ) ;
#76 = EDGE_CURVE ( 'NONE', #10, #69, #258, .T. ) ;
#77 = APPROVAL_ROLE ( '' ) ;
#78 = LOCAL_TIME ( 15, 38, 0.0000000000000000000, #161 ) ;
#79 = DIRECTION ( 'NONE',  ( 0.0000000000000000000, 1.000000000000000000, 0.0000000000000000000 ) ) ;
#80 = COORDINATED_UNIVERSAL_TIME_OFFSET ( 1, 0, .AHEAD. ) ;
#81 = DIRECTION ( 'NONE',  ( 0.0000000000000000000, 1.000000000000000000, 0.0000000000000000000 ) ) ;
#82 = ADVANCED_FACE ( 'NONE', ( #221 ), #24, .T. ) ;
#83 = CARTESIAN_POINT ( 'NONE',  ( 1.640996229256272803E-13, -5.755839955992560641E-15, 47.00000000000000000 ) ) ;
#84 = CIRCLE ( 'NONE', #326, 2.299999999999996270 ) ;
#85 = DIRECTION ( 'NONE',  ( -3.349443381543032545E-31, -1.000000000000000000, -9.427844978134859644E-17 ) ) ;
#86 = DIRECTION ( 'NONE',  ( 3.491481338843133355E-15, -1.224646799147353207E-16, 1.000000000000000000 ) ) ;
#87 = EDGE_CURVE ( 'NONE', #154, #278, #196, .T. ) ;
#88 = CIRCLE ( 'NONE', #320, 2.299999999999996270 ) ;
#89 = CYLINDRICAL_SURFACE ( 'NONE', #267, 2.299999999999998046 ) ;
#90 = CALENDAR_DATE ( 2021, 2, 9 ) ;
#91 = CC_DESIGN_SECURITY_CLASSIFICATION ( #312, ( #330 ) ) ;
#92 = CLOSED_SHELL ( 'NONE', ( #7, #27, #191, #187, #82, #261 ) ) ;
#93 = CARTESIAN_POINT ( 'NONE',  ( 8.474405791098484897E-14, -2.300000000000001599, 47.00000000000000000 ) ) ;
#94 = ORIENTED_EDGE ( 'NONE', *, *, #76, .T. ) ;
#95 =( NAMED_UNIT ( * ) PLANE_ANGLE_UNIT ( ) SI_UNIT ( $, .RADIAN. ) );
#96 = ORIENTED_EDGE ( 'NONE', *, *, #131, .T. ) ;
#97 = APPROVAL ( #180, 'UNSPECIFIED' ) ;
#98 = LOCAL_TIME ( 15, 38, 0.0000000000000000000, #313 ) ;
#99 = PERSON_AND_ORGANIZATION_ROLE ( 'design_owner' ) ;
#100 = ORIENTED_EDGE ( 'NONE', *, *, #62, .T. ) ;
#101 = DIRECTION ( 'NONE',  ( 4.275831445896958607E-31, 1.000000000000000000, 1.224646799147353207E-16 ) ) ;
#102 = DIRECTION ( 'NONE',  ( -3.491481338843133355E-15, 1.224646799147353207E-16, -1.000000000000000000 ) ) ;
#103 = CARTESIAN_POINT ( 'NONE',  ( 4.825155368735090472E-15, -2.299999999999990496, 1.381979423763397774 ) ) ;
#104 = VECTOR ( 'NONE', #321, 1000.000000000000000 ) ;
#105 = EDGE_CURVE ( 'NONE', #290, #136, #212, .T. ) ;
#106 = DIRECTION ( 'NONE',  ( -3.491481338843133355E-15, 1.224646799147353207E-16, -1.000000000000000000 ) ) ;
#107 = ADVANCED_FACE ( 'NONE', ( #239 ), #184, .T. ) ;
#108 = DIRECTION ( 'NONE',  ( -3.349443381543032545E-31, -1.000000000000000000, -9.427844978134859644E-17 ) ) ;
#109 = CYLINDRICAL_SURFACE ( 'NONE', #124, 2.299999999999998046 ) ;
#110 = APPROVAL_PERSON_ORGANIZATION ( #54, #70, #20 ) ;
#111 = DIRECTION ( 'NONE',  ( 4.275831445896958607E-31, 1.000000000000000000, 1.224646799147353207E-16 ) ) ;
#112 = ORIENTED_EDGE ( 'NONE', *, *, #228, .F. ) ;
#113 = DIRECTION ( 'NONE',  ( 4.275831445896957731E-31, 1.000000000000000000, 1.224646799147353207E-16 ) ) ;
#114 = APPROVAL_STATUS ( 'not_yet_approved' ) ;
#115 = DIRECTION ( 'NONE',  ( 3.491481338843133355E-15, -1.224646799147353207E-16, 1.000000000000000000 ) ) ;
#116 = AXIS2_PLACEMENT_3D ( 'NONE', #16, #115, #230 ) ;
#117 = EDGE_LOOP ( 'NONE', ( #152, #245, #318, #262 ) ) ;
#118 = PRODUCT_RELATED_PRODUCT_CATEGORY ( 'detail', '', ( #144 ) ) ;
#119 = LINE ( 'NONE', #253, #72 ) ;
#120 = COORDINATED_UNIVERSAL_TIME_OFFSET ( 1, 0, .AHEAD. ) ;
#121 = FACE_OUTER_BOUND ( 'NONE', #126, .T. ) ;
#122 = PLANE ( 'NONE',  #116 ) ;
#123 = EDGE_CURVE ( 'NONE', #290, #272, #162, .T. ) ;
#124 = AXIS2_PLACEMENT_3D ( 'NONE', #12, #323, #111 ) ;
#125 = CARTESIAN_POINT ( 'NONE',  ( 4.825155368735091261E-15, -1.692436677799349050E-16, 1.381979423763397996 ) ) ;
#126 = EDGE_LOOP ( 'NONE', ( #319, #71 ) ) ;
#127 = AXIS2_PLACEMENT_3D ( 'NONE', #244, #219, #85 ) ;
#128 = CC_DESIGN_PERSON_AND_ORGANIZATION_ASSIGNMENT ( #73, #99, ( #144 ) ) ;
#129 = ORIENTED_EDGE ( 'NONE', *, *, #105, .T. ) ;
#130 = CALENDAR_DATE ( 2021, 2, 9 ) ;
#131 = EDGE_CURVE ( 'NONE', #69, #278, #9, .T. ) ;
#132 = CC_DESIGN_DATE_AND_TIME_ASSIGNMENT ( #186, #298, ( #158 ) ) ;
#133 = ORIENTED_EDGE ( 'NONE', *, *, #211, .F. ) ;
#134 = DIRECTION ( 'NONE',  ( -3.491481338843133355E-15, 1.224646799147353207E-16, -1.000000000000000000 ) ) ;
#135 = DIRECTION ( 'NONE',  ( 0.0000000000000000000, 1.000000000000000000, 0.0000000000000000000 ) ) ;
#136 = VERTEX_POINT ( 'NONE', #299 ) ;
#137 = ORIENTED_EDGE ( 'NONE', *, *, #123, .T. ) ;
#138 = AXIS2_PLACEMENT_3D ( 'NONE', #243, #303, #328 ) ;
#139 = LINE ( 'NONE', #19, #237 ) ;
#140 = LINE ( 'NONE', #263, #44 ) ;
#141 = EDGE_CURVE ( 'NONE', #278, #154, #215, .T. ) ;
#142 = PERSON_AND_ORGANIZATION_ROLE ( 'creator' ) ;
#143 = AXIS2_PLACEMENT_3D ( 'NONE', #224, #281, #226 ) ;
#144 = PRODUCT ( '53749', '53749', '', ( #316 ) ) ;
#145 = DIRECTION ( 'NONE',  ( -3.491481338843133355E-15, 1.224646799147353207E-16, -1.000000000000000000 ) ) ;
#146 = ADVANCED_FACE ( 'NONE', ( #37 ), #282, .T. ) ;
#147 = AXIS2_PLACEMENT_3D ( 'NONE', #57, #134, #270 ) ;
#148 = ORIENTED_EDGE ( 'NONE', *, *, #211, .T. ) ;
#149 = LINE ( 'NONE', #285, #304 ) ;
#150 = ADVANCED_FACE ( 'NONE', ( #327 ), #329, .T. ) ;
#151 = DIRECTION ( 'NONE',  ( 0.0000000000000000000, 0.0000000000000000000, 1.000000000000000000 ) ) ;
#152 = ORIENTED_EDGE ( 'NONE', *, *, #141, .T. ) ;
#153 = DIRECTION ( 'NONE',  ( -3.491481338843133355E-15, 1.224646799147353207E-16, -1.000000000000000000 ) ) ;
#154 = VERTEX_POINT ( 'NONE', #222 ) ;
#155 = DESIGN_CONTEXT ( 'detailed design', #181, 'design' ) ;
#156 = CARTESIAN_POINT ( 'NONE',  ( 5.106824132538982417E-15, 2.299999999999990496, 1.381979423763398218 ) ) ;
#157 = APPROVAL_STATUS ( 'not_yet_approved' ) ;
#158 = PRODUCT_DEFINITION ( 'UNKNOWN', '', #330, #155 ) ;
#159 = CARTESIAN_POINT ( 'NONE',  ( 2.786966893665650814E-13, -1.800000000000010036, 80.00000000000000000 ) ) ;
#160 =( GEOMETRIC_REPRESENTATION_CONTEXT ( 3 ) GLOBAL_UNCERTAINTY_ASSIGNED_CONTEXT ( ( #217 ) ) GLOBAL_UNIT_ASSIGNED_CONTEXT ( ( #260, #95, #183 ) ) REPRESENTATION_CONTEXT ( 'NONE', 'WORKASPACE' ) );
#161 = COORDINATED_UNIVERSAL_TIME_OFFSET ( 1, 0, .AHEAD. ) ;
#162 = LINE ( 'NONE', #103, #104 ) ;
#163 = DIRECTION ( 'NONE',  ( -3.491481338843133355E-15, 1.224646799147353207E-16, -1.000000000000000000 ) ) ;
#164 = CARTESIAN_POINT ( 'NONE',  ( 2.793185071074506684E-13, -9.797174393178826052E-15, 80.00000000000000000 ) ) ;
#165 = CARTESIAN_POINT ( 'NONE',  ( 1.640996229256272803E-13, -5.755839955992560641E-15, 47.00000000000000000 ) ) ;
#166 = AXIS2_PLACEMENT_3D ( 'NONE', #248, #22, #21 ) ;
#167 = AXIS2_PLACEMENT_3D ( 'NONE', #83, #301, #79 ) ;
#168 = EDGE_CURVE ( 'NONE', #154, #25, #139, .T. ) ;
#169 = DIRECTION ( 'NONE',  ( 3.349443381543032545E-31, 1.000000000000000000, 9.427844978134859644E-17 ) ) ;
#170 = CC_DESIGN_PERSON_AND_ORGANIZATION_ASSIGNMENT ( #251, #65, ( #330 ) ) ;
#171 = APPROVAL_DATE_TIME ( #18, #331 ) ;
#172 = CIRCLE ( 'NONE', #206, 2.299999999999990496 ) ;
#173 = DIRECTION ( 'NONE',  ( 4.275831445896958607E-31, 1.000000000000000000, 1.224646799147353207E-16 ) ) ;
#174 = DIRECTION ( 'NONE',  ( -3.491481338843133355E-15, 1.224646799147353207E-16, -1.000000000000000000 ) ) ;
#175 = VERTEX_POINT ( 'NONE', #64 ) ;
#176 = DIRECTION ( 'NONE',  ( -2.382254525458718258E-15, -0.7071067811865469066, -0.7071067811865482389 ) ) ;
#177 = ORIENTED_EDGE ( 'NONE', *, *, #257, .T. ) ;
#178 = DIRECTION ( 'NONE',  ( 3.349443381543032545E-31, 1.000000000000000000, 9.427844978134859644E-17 ) ) ;
#179 = EDGE_LOOP ( 'NONE', ( #271, #94, #96, #234 ) ) ;
#180 = APPROVAL_STATUS ( 'not_yet_approved' ) ;
#181 = APPLICATION_CONTEXT ( 'configuration controlled 3d designs of mechanical parts and assemblies' ) ;
#182 = ORIENTED_EDGE ( 'NONE', *, *, #252, .F. ) ;
#183 =( NAMED_UNIT ( * ) SI_UNIT ( $, .STERADIAN. ) SOLID_ANGLE_UNIT ( ) );
#184 = CONICAL_SURFACE ( 'NONE', #41, 2.299999999999990496, 1.029744258676649649 ) ;
#185 = CARTESIAN_POINT ( 'NONE',  ( 4.825155368735091261E-15, -1.692436677799349050E-16, 1.381979423763397996 ) ) ;
#186 = DATE_AND_TIME ( #322, #246 ) ;
#187 = ADVANCED_FACE ( 'NONE', ( #60 ), #89, .T. ) ;
#188 = DIRECTION ( 'NONE',  ( -2.468850131082267316E-15, 0.7071067811865471286, -0.7071067811865479058 ) ) ;
#189 = CARTESIAN_POINT ( 'NONE',  ( 1.640996229256272803E-13, -5.755839955992560641E-15, 47.00000000000000000 ) ) ;
#190 = CIRCLE ( 'NONE', #61, 2.299999999999990496 ) ;
#191 = ADVANCED_FACE ( 'NONE', ( #333 ), #284, .F. ) ;
#192 = DIRECTION ( 'NONE',  ( -3.491481338843133355E-15, 1.224646799147353207E-16, -1.000000000000000000 ) ) ;
#193 = ORIENTED_EDGE ( 'NONE', *, *, #141, .F. ) ;
#194 = CC_DESIGN_PERSON_AND_ORGANIZATION_ASSIGNMENT ( #240, #214, ( #158 ) ) ;
#195 = CLOSED_SHELL ( 'NONE', ( #150, #146, #107, #288, #233 ) ) ;
#196 = CIRCLE ( 'NONE', #138, 2.299999999999999822 ) ;
#197 = CARTESIAN_POINT ( 'NONE',  ( 0.0000000000000000000, 0.0000000000000000000, 0.0000000000000000000 ) ) ;
#198 = PERSON_AND_ORGANIZATION ( #324, #56 ) ;
#199 = PERSON_AND_ORGANIZATION ( #324, #56 ) ;
#200 = AXIS2_PLACEMENT_3D ( 'NONE', #291, #153, #315 ) ;
#201 = MANIFOLD_SOLID_BREP ( 'Corps-Déplacer/Copier1[2]', #195 ) ;
#202 = ORIENTED_EDGE ( 'NONE', *, *, #123, .F. ) ;
#203 = ORIENTED_EDGE ( 'NONE', *, *, #76, .F. ) ;
#204 = CARTESIAN_POINT ( 'NONE',  ( 4.825155368735090472E-15, -2.299999999999990496, 1.381979423763397774 ) ) ;
#205 = EDGE_CURVE ( 'NONE', #175, #136, #306, .T. ) ;
#206 = AXIS2_PLACEMENT_3D ( 'NONE', #125, #174, #178 ) ;
#207 = APPLICATION_PROTOCOL_DEFINITION ( 'international standard', 'config_control_design', 1994, #181 ) ;
#208 = FACE_OUTER_BOUND ( 'NONE', #314, .T. ) ;
#209 = ADVANCED_BREP_SHAPE_REPRESENTATION ( '53749', ( #75, #201, #264 ), #160 ) ;
#210 = ORIENTED_EDGE ( 'NONE', *, *, #223, .T. ) ;
#211 = EDGE_CURVE ( 'NONE', #272, #136, #190, .T. ) ;
#212 = LINE ( 'NONE', #156, #337 ) ;
#213 = APPROVAL_PERSON_ORGANIZATION ( #317, #97, #77 ) ;
#214 = PERSON_AND_ORGANIZATION_ROLE ( 'creator' ) ;
#215 = CIRCLE ( 'NONE', #147, 2.299999999999999822 ) ;
#216 = ORIENTED_EDGE ( 'NONE', *, *, #168, .F. ) ;
#217 = UNCERTAINTY_MEASURE_WITH_UNIT (LENGTH_MEASURE( 1.000000000000000082E-05 ), #260, 'distance_accuracy_value', 'NONE');
#218 = ORIENTED_EDGE ( 'NONE', *, *, #131, .F. ) ;
#219 = DIRECTION ( 'NONE',  ( 3.491481338843133355E-15, -1.224646799147353207E-16, 1.000000000000000000 ) ) ;
#220 = CIRCLE ( 'NONE', #166, 1.800000000000000266 ) ;
#221 = FACE_OUTER_BOUND ( 'NONE', #179, .T. ) ;
#222 = CARTESIAN_POINT ( 'NONE',  ( 2.211178634456320017E-13, -2.300000000000009592, 79.50000000000000000 ) ) ;
#223 = EDGE_CURVE ( 'NONE', #278, #266, #119, .T. ) ;
#224 = CARTESIAN_POINT ( 'NONE',  ( 1.640996229256272803E-13, 1.724723750061125028E-32, 47.00000000000000000 ) ) ;
#225 = APPROVAL_ROLE ( '' ) ;
#226 = DIRECTION ( 'NONE',  ( -4.275831445896958607E-31, -1.000000000000000000, -1.224646799147353207E-16 ) ) ;
#227 = DATE_AND_TIME ( #311, #287 ) ;
#228 = EDGE_CURVE ( 'NONE', #69, #10, #220, .T. ) ;
#229 = PERSON_AND_ORGANIZATION_ROLE ( 'classification_officer' ) ;
#230 = DIRECTION ( 'NONE',  ( -4.275831445896958607E-31, -1.000000000000000000, -1.224646799147353207E-16 ) ) ;
#231 = VECTOR ( 'NONE', #188, 1000.000000000000000 ) ;
#232 = ORIENTED_EDGE ( 'NONE', *, *, #228, .T. ) ;
#233 = ADVANCED_FACE ( 'NONE', ( #121 ), #122, .T. ) ;
#234 = ORIENTED_EDGE ( 'NONE', *, *, #87, .F. ) ;
#235 = APPLICATION_PROTOCOL_DEFINITION ( 'international standard', 'config_control_design', 1994, #50 ) ;
#236 = DIRECTION ( 'NONE',  ( 1.000000000000000000, 0.0000000000000000000, 0.0000000000000000000 ) ) ;
#237 = VECTOR ( 'NONE', #145, 1000.000000000000000 ) ;
#238 = DIRECTION ( 'NONE',  ( -3.491481338843133355E-15, 1.224646799147353207E-16, -1.000000000000000000 ) ) ;
#239 = FACE_OUTER_BOUND ( 'NONE', #58, .T. ) ;
#240 = PERSON_AND_ORGANIZATION ( #324, #56 ) ;
#241 = DIRECTION ( 'NONE',  ( -3.491481338843133355E-15, 1.224646799147353207E-16, -1.000000000000000000 ) ) ;
#242 = CIRCLE ( 'NONE', #167, 2.299999999999996270 ) ;
#243 = CARTESIAN_POINT ( 'NONE',  ( 2.775727664380291081E-13, -9.735942053221458478E-15, 79.50000000000000000 ) ) ;
#244 = CARTESIAN_POINT ( 'NONE',  ( 4.825155368735091261E-15, -1.692436677799349050E-16, 1.381979423763397996 ) ) ;
#245 = ORIENTED_EDGE ( 'NONE', *, *, #168, .T. ) ;
#246 = LOCAL_TIME ( 15, 38, 0.0000000000000000000, #80 ) ;
#247 = CARTESIAN_POINT ( 'NONE',  ( 0.0000000000000000000, 0.0000000000000000000, 0.0000000000000000000 ) ) ;
#248 = CARTESIAN_POINT ( 'NONE',  ( 2.793185071074506684E-13, -9.797174393178826052E-15, 80.00000000000000000 ) ) ;
#249 = VERTEX_POINT ( 'NONE', #93 ) ;
#250 = AXIS2_PLACEMENT_3D ( 'NONE', #30, #4, #101 ) ;
#251 = PERSON_AND_ORGANIZATION ( #324, #56 ) ;
#252 = EDGE_CURVE ( 'NONE', #25, #266, #11, .T. ) ;
#253 = CARTESIAN_POINT ( 'NONE',  ( 9.834412325562996562E-31, 2.299999999999998046, 2.816687638038910084E-16 ) ) ;
#254 = DIRECTION ( 'NONE',  ( -3.491481338843133355E-15, 1.224646799147353207E-16, -1.000000000000000000 ) ) ;
#255 = ORIENTED_EDGE ( 'NONE', *, *, #308, .F. ) ;
#256 = CARTESIAN_POINT ( 'NONE',  ( 1.640996229256272803E-13, -5.755839955992560641E-15, 47.00000000000000000 ) ) ;
#257 = EDGE_CURVE ( 'NONE', #249, #272, #140, .T. ) ;
#258 = CIRCLE ( 'NONE', #289, 1.800000000000000266 ) ;
#259 = CARTESIAN_POINT ( 'NONE',  ( 2.775727664380291081E-13, 2.299999999999990496, 79.50000000000000000 ) ) ;
#260 =( LENGTH_UNIT ( ) NAMED_UNIT ( * ) SI_UNIT ( .MILLI., .METRE. ) );
#261 = ADVANCED_FACE ( 'NONE', ( #74 ), #68, .F. ) ;
#262 = ORIENTED_EDGE ( 'NONE', *, *, #223, .F. ) ;
#263 = CARTESIAN_POINT ( 'NONE',  ( 2.816687638038894307E-16, -2.299999999999993161, -2.816687638038913535E-16 ) ) ;
#264 = AXIS2_PLACEMENT_3D ( 'NONE', #31, #151, #236 ) ;
#265 = EDGE_LOOP ( 'NONE', ( #232, #5, #193, #218 ) ) ;
#266 = VERTEX_POINT ( 'NONE', #292 ) ;
#267 = AXIS2_PLACEMENT_3D ( 'NONE', #197, #309, #173 ) ;
#268 = CARTESIAN_POINT ( 'NONE',  ( 2.793185071074506684E-13, 1.799999999999990496, 80.00000000000000000 ) ) ;
#269 = EDGE_LOOP ( 'NONE', ( #112, #203 ) ) ;
#270 = DIRECTION ( 'NONE',  ( 0.0000000000000000000, 1.000000000000000000, 0.0000000000000000000 ) ) ;
#271 = ORIENTED_EDGE ( 'NONE', *, *, #334, .F. ) ;
#272 = VERTEX_POINT ( 'NONE', #204 ) ;
#273 = DIRECTION ( 'NONE',  ( 1.903218546456022717E-15, 0.8571673007021097801, 0.5150380749100585964 ) ) ;
#274 = APPROVAL_PERSON_ORGANIZATION ( #199, #331, #225 ) ;
#275 = DIRECTION ( 'NONE',  ( -3.491481338843133355E-15, 1.224646799147353207E-16, -1.000000000000000000 ) ) ;
#276 = EDGE_CURVE ( 'NONE', #266, #25, #84, .T. ) ;
#277 = AXIS2_PLACEMENT_3D ( 'NONE', #34, #241, #55 ) ;
#278 = VERTEX_POINT ( 'NONE', #259 ) ;
#279 = DIRECTION ( 'NONE',  ( -3.491481338843133355E-15, 1.224646799147353207E-16, -1.000000000000000000 ) ) ;
#280 = DATE_TIME_ROLE ( 'classification_date' ) ;
#281 = DIRECTION ( 'NONE',  ( 3.491481338843133355E-15, -1.224646799147353207E-16, 1.000000000000000000 ) ) ;
#282 = CONICAL_SURFACE ( 'NONE', #127, 2.299999999999990496, 1.029744258676649649 ) ;
#283 = APPROVAL_DATE_TIME ( #227, #70 ) ;
#284 = PLANE ( 'NONE',  #143 ) ;
#285 = CARTESIAN_POINT ( 'NONE',  ( 2.795389435312971967E-13, -1.800000000000010036, 80.00000000000000000 ) ) ;
#286 = CYLINDRICAL_SURFACE ( 'NONE', #200, 2.299999999999993161 ) ;
#287 = LOCAL_TIME ( 15, 38, 0.0000000000000000000, #120 ) ;
#288 = ADVANCED_FACE ( 'NONE', ( #208 ), #286, .T. ) ;
#289 = AXIS2_PLACEMENT_3D ( 'NONE', #59, #192, #53 ) ;
#290 = VERTEX_POINT ( 'NONE', #26 ) ;
#291 = CARTESIAN_POINT ( 'NONE',  ( 0.0000000000000000000, 0.0000000000000000000, 0.0000000000000000000 ) ) ;
#292 = CARTESIAN_POINT ( 'NONE',  ( 1.640996229256272803E-13, 2.299999999999990496, 47.00000000000000000 ) ) ;
#293 = DIRECTION ( 'NONE',  ( 0.0000000000000000000, 1.000000000000000000, 0.0000000000000000000 ) ) ;
#294 = AXIS2_PLACEMENT_3D ( 'NONE', #164, #106, #81 ) ;
#295 = ORIENTED_EDGE ( 'NONE', *, *, #87, .T. ) ;
#296 = APPROVAL_DATE_TIME ( #52, #97 ) ;
#297 = CARTESIAN_POINT ( 'NONE',  ( 2.793185071074506684E-13, 1.799999999999990496, 80.00000000000000000 ) ) ;
#298 = DATE_TIME_ROLE ( 'creation_date' ) ;
#299 = CARTESIAN_POINT ( 'NONE',  ( 5.106824132538982417E-15, 2.299999999999990496, 1.381979423763398218 ) ) ;
#300 = CC_DESIGN_APPROVAL ( #331, ( #312 ) ) ;
#301 = DIRECTION ( 'NONE',  ( -3.491481338843133355E-15, 1.224646799147353207E-16, -1.000000000000000000 ) ) ;
#302 = ORIENTED_EDGE ( 'NONE', *, *, #308, .T. ) ;
#303 = DIRECTION ( 'NONE',  ( -3.491481338843133355E-15, 1.224646799147353207E-16, -1.000000000000000000 ) ) ;
#304 = VECTOR ( 'NONE', #176, 999.9999999999998863 ) ;
#305 = SECURITY_CLASSIFICATION_LEVEL ( 'unclassified' ) ;
#306 = LINE ( 'NONE', #46, #23 ) ;
#307 = CONICAL_SURFACE ( 'NONE', #277, 1.800000000000000266, 0.7853981633974476129 ) ;
#308 = EDGE_CURVE ( 'NONE', #136, #272, #172, .T. ) ;
#309 = DIRECTION ( 'NONE',  ( -3.491481338843133355E-15, 1.224646799147353207E-16, -1.000000000000000000 ) ) ;
#310 = CC_DESIGN_DATE_AND_TIME_ASSIGNMENT ( #45, #280, ( #312 ) ) ;
#311 = CALENDAR_DATE ( 2021, 2, 9 ) ;
#312 = SECURITY_CLASSIFICATION ( '', '', #305 ) ;
#313 = COORDINATED_UNIVERSAL_TIME_OFFSET ( 1, 0, .AHEAD. ) ;
#314 = EDGE_LOOP ( 'NONE', ( #1, #100, #13, #133 ) ) ;
#315 = DIRECTION ( 'NONE',  ( 4.275831445896957731E-31, 1.000000000000000000, 1.224646799147353207E-16 ) ) ;
#316 = MECHANICAL_CONTEXT ( 'NONE', #50, 'mechanical' ) ;
#317 = PERSON_AND_ORGANIZATION ( #324, #56 ) ;
#318 = ORIENTED_EDGE ( 'NONE', *, *, #276, .F. ) ;
#319 = ORIENTED_EDGE ( 'NONE', *, *, #33, .F. ) ;
#320 = AXIS2_PLACEMENT_3D ( 'NONE', #189, #163, #135 ) ;
#321 = DIRECTION ( 'NONE',  ( 1.798245827342160317E-15, -0.8571673007021098911, 0.5150380749100582634 ) ) ;
#322 = CALENDAR_DATE ( 2021, 2, 9 ) ;
#323 = DIRECTION ( 'NONE',  ( -3.491481338843133355E-15, 1.224646799147353207E-16, -1.000000000000000000 ) ) ;
#324 = PERSON ( 'UNSPECIFIED', 'UNSPECIFIED', 'UNSPECIFIED', ('UNSPECIFIED'), ('UNSPECIFIED'), ('UNSPECIFIED') ) ;
#325 = FACE_OUTER_BOUND ( 'NONE', #117, .T. ) ;
#326 = AXIS2_PLACEMENT_3D ( 'NONE', #256, #238, #293 ) ;
#327 = FACE_OUTER_BOUND ( 'NONE', #28, .T. ) ;
#328 = DIRECTION ( 'NONE',  ( 0.0000000000000000000, 1.000000000000000000, 0.0000000000000000000 ) ) ;
#329 = CYLINDRICAL_SURFACE ( 'NONE', #66, 2.299999999999993161 ) ;
#330 = PRODUCT_DEFINITION_FORMATION_WITH_SPECIFIED_SOURCE ( 'ANY', '', #144, .NOT_KNOWN. ) ;
#331 = APPROVAL ( #114, 'UNSPECIFIED' ) ;
#332 = COORDINATED_UNIVERSAL_TIME_OFFSET ( 1, 0, .AHEAD. ) ;
#333 = FACE_OUTER_BOUND ( 'NONE', #51, .T. ) ;
#334 = EDGE_CURVE ( 'NONE', #10, #154, #149, .T. ) ;
#335 = CALENDAR_DATE ( 2021, 2, 9 ) ;
#336 = CARTESIAN_POINT ( 'NONE',  ( 4.825155368735091261E-15, -1.692436677799349050E-16, 1.381979423763397996 ) ) ;
#337 = VECTOR ( 'NONE', #273, 999.9999999999998863 ) ;
ENDSEC;
END-ISO-10303-21;
