ISO-10303-21;
HEADER;
FILE_DESCRIPTION (( 'STEP AP203' ),
    '1' );
FILE_NAME ('53748.step',
    '2021-09-02T13:37:59',
    ( '' ),
    ( '' ),
    'SwSTEP 2.0',
    'SolidWorks 2019',
    '' );
FILE_SCHEMA (( 'CONFIG_CONTROL_DESIGN' ));
ENDSEC;

DATA;
#1 = ORIENTED_EDGE ( 'NONE', *, *, #210, .F. ) ;
#2 = AXIS2_PLACEMENT_3D ( 'NONE', #147, #61, #137 ) ;
#3 = VERTEX_POINT ( 'NONE', #207 ) ;
#4 = AXIS2_PLACEMENT_3D ( 'NONE', #140, #329, #197 ) ;
#5 = PRODUCT ( '53748', '53748', '', ( #124 ) ) ;
#6 = DIRECTION ( 'NONE',  ( -4.275831445896958607E-31, -1.000000000000000000, -1.224646799147353207E-16 ) ) ;
#7 = FACE_OUTER_BOUND ( 'NONE', #324, .T. ) ;
#8 = CARTESIAN_POINT ( 'NONE',  ( 2.793185071074506684E-13, 1.749999999999990230, 80.00000000000000000 ) ) ;
#9 = PLANE ( 'NONE',  #42 ) ;
#10 = EDGE_LOOP ( 'NONE', ( #188, #209 ) ) ;
#11 = CARTESIAN_POINT ( 'NONE',  ( 2.786905661325693838E-13, -1.750000000000009770, 80.00000000000000000 ) ) ;
#12 = VECTOR ( 'NONE', #239, 1000.000000000000000 ) ;
#13 = DIRECTION ( 'NONE',  ( -3.491481338843133355E-15, 1.224646799147353207E-16, -1.000000000000000000 ) ) ;
#14 = CARTESIAN_POINT ( 'NONE',  ( 4.720260686806067641E-15, -1.655644576108058762E-16, 1.351936392812019827 ) ) ;
#15 = CARTESIAN_POINT ( 'NONE',  ( 2.793185071074506684E-13, 1.312289809829110901E-32, 80.00000000000000000 ) ) ;
#16 = EDGE_CURVE ( 'NONE', #34, #214, #283, .T. ) ;
#17 = DIRECTION ( 'NONE',  ( 0.0000000000000000000, 1.000000000000000000, 0.0000000000000000000 ) ) ;
#18 = DATE_AND_TIME ( #303, #264 ) ;
#19 = ORIENTED_EDGE ( 'NONE', *, *, #157, .T. ) ;
#20 = FACE_OUTER_BOUND ( 'NONE', #315, .T. ) ;
#21 = VECTOR ( 'NONE', #319, 999.9999999999998863 ) ;
#22 = APPROVAL_STATUS ( 'not_yet_approved' ) ;
#23 = ADVANCED_FACE ( 'NONE', ( #32 ), #161, .T. ) ;
#24 = SHAPE_DEFINITION_REPRESENTATION ( #33, #27 ) ;
#25 = PERSON_AND_ORGANIZATION_ROLE ( 'design_supplier' ) ;
#26 = CIRCLE ( 'NONE', #103, 1.750000000000000000 ) ;
#27 = ADVANCED_BREP_SHAPE_REPRESENTATION ( '53748', ( #270, #159, #111 ), #336 ) ;
#28 = CC_DESIGN_PERSON_AND_ORGANIZATION_ASSIGNMENT ( #128, #201, ( #59 ) ) ;
#29 = VERTEX_POINT ( 'NONE', #73 ) ;
#30 = CIRCLE ( 'NONE', #2, 2.249999999999996003 ) ;
#31 = EDGE_CURVE ( 'NONE', #284, #136, #295, .T. ) ;
#32 = FACE_OUTER_BOUND ( 'NONE', #77, .T. ) ;
#33 = PRODUCT_DEFINITION_SHAPE ( 'NONE', 'NONE',  #276 ) ;
#34 = VERTEX_POINT ( 'NONE', #113 ) ;
#35 = CARTESIAN_POINT ( 'NONE',  ( 2.793185071074506684E-13, 1.749999999999990230, 80.00000000000000000 ) ) ;
#36 = DIRECTION ( 'NONE',  ( -3.491481338843133355E-15, 1.224646799147353207E-16, -1.000000000000000000 ) ) ;
#37 = DIRECTION ( 'NONE',  ( -3.491481338843133355E-15, 1.224646799147353207E-16, -1.000000000000000000 ) ) ;
#38 = SECURITY_CLASSIFICATION ( '', '', #227 ) ;
#39 = CARTESIAN_POINT ( 'NONE',  ( 1.640996229256272803E-13, 1.687229755494578314E-32, 47.00000000000000000 ) ) ;
#40 = ORIENTED_EDGE ( 'NONE', *, *, #31, .T. ) ;
#41 = FACE_OUTER_BOUND ( 'NONE', #67, .T. ) ;
#42 = AXIS2_PLACEMENT_3D ( 'NONE', #15, #36, #273 ) ;
#43 = VECTOR ( 'NONE', #218, 999.9999999999998863 ) ;
#44 = DIRECTION ( 'NONE',  ( 3.423875456688434280E-31, 1.000000000000000000, 9.637352644315637151E-17 ) ) ;
#45 = LINE ( 'NONE', #35, #151 ) ;
#46 = CARTESIAN_POINT ( 'NONE',  ( 2.775727664380291081E-13, -9.735942053221458478E-15, 79.50000000000000000 ) ) ;
#47 = DIRECTION ( 'NONE',  ( 3.423875456688434280E-31, 1.000000000000000000, 9.637352644315637151E-17 ) ) ;
#48 = CARTESIAN_POINT ( 'NONE',  ( 2.755455298081532452E-16, -2.249999999999997780, -2.755455298081551187E-16 ) ) ;
#49 = LOCAL_TIME ( 15, 37, 59.00000000000000000, #99 ) ;
#50 = ORIENTED_EDGE ( 'NONE', *, *, #134, .F. ) ;
#51 = APPROVAL_STATUS ( 'not_yet_approved' ) ;
#52 = APPROVAL_ROLE ( '' ) ;
#53 = AXIS2_PLACEMENT_3D ( 'NONE', #170, #117, #269 ) ;
#54 = ORIENTED_EDGE ( 'NONE', *, *, #31, .F. ) ;
#55 = EDGE_CURVE ( 'NONE', #64, #175, #199, .T. ) ;
#56 = CARTESIAN_POINT ( 'NONE',  ( 2.755455298081527028E-16, -2.249999999999993339, -2.755455298081545764E-16 ) ) ;
#57 = ORIENTED_EDGE ( 'NONE', *, *, #313, .T. ) ;
#58 = ORGANIZATION ( 'UNSPECIFIED', 'UNSPECIFIED', '' ) ;
#59 = PRODUCT_DEFINITION_FORMATION_WITH_SPECIFIED_SOURCE ( 'ANY', '', #5, .NOT_KNOWN. ) ;
#60 = EDGE_CURVE ( 'NONE', #214, #29, #125, .T. ) ;
#61 = DIRECTION ( 'NONE',  ( -3.491481338843133355E-15, 1.224646799147353207E-16, -1.000000000000000000 ) ) ;
#62 = CONICAL_SURFACE ( 'NONE', #330, 1.750000000000000000, 0.7853981633974476129 ) ;
#63 = CARTESIAN_POINT ( 'NONE',  ( 2.795328202973014486E-13, -1.750000000000009770, 80.00000000000000000 ) ) ;
#64 = VERTEX_POINT ( 'NONE', #173 ) ;
#65 = CARTESIAN_POINT ( 'NONE',  ( 0.0000000000000000000, 0.0000000000000000000, 0.0000000000000000000 ) ) ;
#66 = DIRECTION ( 'NONE',  ( 0.0000000000000000000, 1.000000000000000000, 0.0000000000000000000 ) ) ;
#67 = EDGE_LOOP ( 'NONE', ( #1, #301, #241 ) ) ;
#68 = CYLINDRICAL_SURFACE ( 'NONE', #279, 2.249999999999993339 ) ;
#69 = CC_DESIGN_DATE_AND_TIME_ASSIGNMENT ( #18, #149, ( #276 ) ) ;
#70 = CARTESIAN_POINT ( 'NONE',  ( 2.211117402116362284E-13, -2.250000000000009326, 79.50000000000000000 ) ) ;
#71 = CARTESIAN_POINT ( 'NONE',  ( 0.0000000000000000000, 0.0000000000000000000, 0.0000000000000000000 ) ) ;
#72 = FACE_OUTER_BOUND ( 'NONE', #184, .T. ) ;
#73 = CARTESIAN_POINT ( 'NONE',  ( 4.995806216614221724E-15, 2.249999999999990230, 1.351936392812020049 ) ) ;
#74 = COORDINATED_UNIVERSAL_TIME_OFFSET ( 1, 0, .AHEAD. ) ;
#75 = DATE_AND_TIME ( #250, #204 ) ;
#76 = CC_DESIGN_DATE_AND_TIME_ASSIGNMENT ( #299, #154, ( #38 ) ) ;
#77 = EDGE_LOOP ( 'NONE', ( #57, #40, #160, #316 ) ) ;
#78 = AXIS2_PLACEMENT_3D ( 'NONE', #196, #98, #92 ) ;
#79 = PERSON_AND_ORGANIZATION ( #253, #58 ) ;
#80 = COORDINATED_UNIVERSAL_TIME_OFFSET ( 1, 0, .AHEAD. ) ;
#81 = EDGE_CURVE ( 'NONE', #136, #3, #163, .T. ) ;
#82 = AXIS2_PLACEMENT_3D ( 'NONE', #46, #287, #194 ) ;
#83 = EDGE_LOOP ( 'NONE', ( #255, #167, #158, #235 ) ) ;
#84 = EDGE_CURVE ( 'NONE', #284, #232, #205, .T. ) ;
#85 = ORIENTED_EDGE ( 'NONE', *, *, #60, .F. ) ;
#86 = APPROVAL_PERSON_ORGANIZATION ( #248, #131, #130 ) ;
#87 = CONICAL_SURFACE ( 'NONE', #91, 2.249999999999990230, 1.029744258676649649 ) ;
#88 = ADVANCED_FACE ( 'NONE', ( #72 ), #216, .T. ) ;
#89 =( NAMED_UNIT ( * ) SI_UNIT ( $, .STERADIAN. ) SOLID_ANGLE_UNIT ( ) );
#90 = FACE_OUTER_BOUND ( 'NONE', #83, .T. ) ;
#91 = AXIS2_PLACEMENT_3D ( 'NONE', #332, #246, #126 ) ;
#92 = DIRECTION ( 'NONE',  ( 4.275831445896958607E-31, 1.000000000000000000, 1.224646799147353454E-16 ) ) ;
#93 = ORIENTED_EDGE ( 'NONE', *, *, #313, .F. ) ;
#94 = CARTESIAN_POINT ( 'NONE',  ( 4.720260686806066852E-15, -2.249999999999990230, 1.351936392812019605 ) ) ;
#95 = DIRECTION ( 'NONE',  ( 0.0000000000000000000, 1.000000000000000000, 0.0000000000000000000 ) ) ;
#96 = CARTESIAN_POINT ( 'NONE',  ( 4.720260686806067641E-15, -1.655644576108058762E-16, 1.351936392812019827 ) ) ;
#97 = CIRCLE ( 'NONE', #231, 2.250000000000000000 ) ;
#98 = DIRECTION ( 'NONE',  ( -3.491481338843133355E-15, 1.224646799147353207E-16, -1.000000000000000000 ) ) ;
#99 = COORDINATED_UNIVERSAL_TIME_OFFSET ( 1, 0, .AHEAD. ) ;
#100 = CC_DESIGN_PERSON_AND_ORGANIZATION_ASSIGNMENT ( #307, #333, ( #5 ) ) ;
#101 = DIRECTION ( 'NONE',  ( 1.000000000000000000, 0.0000000000000000000, 0.0000000000000000000 ) ) ;
#102 = DIRECTION ( 'NONE',  ( 0.0000000000000000000, 0.0000000000000000000, 1.000000000000000000 ) ) ;
#103 = AXIS2_PLACEMENT_3D ( 'NONE', #242, #37, #268 ) ;
#104 = CALENDAR_DATE ( 2021, 2, 9 ) ;
#105 = PRODUCT_RELATED_PRODUCT_CATEGORY ( 'detail', '', ( #5 ) ) ;
#106 = AXIS2_PLACEMENT_3D ( 'NONE', #261, #189, #6 ) ;
#107 = ORIENTED_EDGE ( 'NONE', *, *, #84, .F. ) ;
#108 = EDGE_LOOP ( 'NONE', ( #310, #185, #187, #85 ) ) ;
#109 = ADVANCED_FACE ( 'NONE', ( #90 ), #293, .T. ) ;
#110 = ORIENTED_EDGE ( 'NONE', *, *, #234, .T. ) ;
#111 = AXIS2_PLACEMENT_3D ( 'NONE', #65, #102, #101 ) ;
#112 = CARTESIAN_POINT ( 'NONE',  ( 9.620620753268128401E-31, 2.249999999999993339, 2.755455298081536889E-16 ) ) ;
#113 = CARTESIAN_POINT ( 'NONE',  ( 8.468548733602461902E-14, -2.250000000000001776, 47.00000000000000000 ) ) ;
#114 = CC_DESIGN_APPROVAL ( #131, ( #38 ) ) ;
#115 = DESIGN_CONTEXT ( 'detailed design', #314, 'design' ) ;
#116 = EDGE_CURVE ( 'NONE', #64, #136, #135, .T. ) ;
#117 = DIRECTION ( 'NONE',  ( -3.491481338843133355E-15, 1.224646799147353207E-16, -1.000000000000000000 ) ) ;
#118 = CC_DESIGN_PERSON_AND_ORGANIZATION_ASSIGNMENT ( #278, #179, ( #38 ) ) ;
#119 = PLANE ( 'NONE',  #106 ) ;
#120 = CIRCLE ( 'NONE', #233, 2.249999999999996003 ) ;
#121 = DIRECTION ( 'NONE',  ( -4.275831445896958607E-31, -1.000000000000000000, -1.224646799147353207E-16 ) ) ;
#122 = DIRECTION ( 'NONE',  ( -3.491481338843133355E-15, 1.224646799147353207E-16, -1.000000000000000000 ) ) ;
#123 = CARTESIAN_POINT ( 'NONE',  ( 1.640996229256272803E-13, -5.755839955992560641E-15, 47.00000000000000000 ) ) ;
#124 = MECHANICAL_CONTEXT ( 'NONE', #220, 'mechanical' ) ;
#125 = CIRCLE ( 'NONE', #311, 2.249999999999990230 ) ;
#126 = DIRECTION ( 'NONE',  ( -3.423875456688434280E-31, -1.000000000000000000, -9.637352644315637151E-17 ) ) ;
#127 = COORDINATED_UNIVERSAL_TIME_OFFSET ( 1, 0, .AHEAD. ) ;
#128 = PERSON_AND_ORGANIZATION ( #253, #58 ) ;
#129 = ORIENTED_EDGE ( 'NONE', *, *, #55, .T. ) ;
#130 = APPROVAL_ROLE ( '' ) ;
#131 = APPROVAL ( #22, 'UNSPECIFIED' ) ;
#132 = EDGE_CURVE ( 'NONE', #175, #3, #120, .T. ) ;
#133 = CARTESIAN_POINT ( 'NONE',  ( 2.793185071074506684E-13, -9.797174393178826052E-15, 80.00000000000000000 ) ) ;
#134 = EDGE_CURVE ( 'NONE', #277, #34, #198, .T. ) ;
#135 = CIRCLE ( 'NONE', #82, 2.250000000000000000 ) ;
#136 = VERTEX_POINT ( 'NONE', #70 ) ;
#137 = DIRECTION ( 'NONE',  ( 0.0000000000000000000, 1.000000000000000000, 0.0000000000000000000 ) ) ;
#138 = ADVANCED_FACE ( 'NONE', ( #168 ), #146, .T. ) ;
#139 = ADVANCED_FACE ( 'NONE', ( #221 ), #9, .F. ) ;
#140 = CARTESIAN_POINT ( 'NONE',  ( 0.0000000000000000000, 0.0000000000000000000, 0.0000000000000000000 ) ) ;
#141 = DIRECTION ( 'NONE',  ( 0.0000000000000000000, 1.000000000000000000, 0.0000000000000000000 ) ) ;
#142 = DIRECTION ( 'NONE',  ( -3.491481338843133355E-15, 1.224646799147353207E-16, -1.000000000000000000 ) ) ;
#143 =( NAMED_UNIT ( * ) PLANE_ANGLE_UNIT ( ) SI_UNIT ( $, .RADIAN. ) );
#144 = DIRECTION ( 'NONE',  ( -3.491481338843133355E-15, 1.224646799147353207E-16, -1.000000000000000000 ) ) ;
#145 = CARTESIAN_POINT ( 'NONE',  ( 1.640996229256272803E-13, -5.755839955992560641E-15, 47.00000000000000000 ) ) ;
#146 = CYLINDRICAL_SURFACE ( 'NONE', #78, 2.249999999999993339 ) ;
#147 = CARTESIAN_POINT ( 'NONE',  ( 1.640996229256272803E-13, -5.755839955992560641E-15, 47.00000000000000000 ) ) ;
#148 = CARTESIAN_POINT ( 'NONE',  ( 4.995806216614221724E-15, 2.249999999999990230, 1.351936392812020049 ) ) ;
#149 = DATE_TIME_ROLE ( 'creation_date' ) ;
#150 = EDGE_LOOP ( 'NONE', ( #93, #107 ) ) ;
#151 = VECTOR ( 'NONE', #237, 1000.000000000000000 ) ;
#152 = APPLICATION_PROTOCOL_DEFINITION ( 'international standard', 'config_control_design', 1994, #314 ) ;
#153 = ADVANCED_FACE ( 'NONE', ( #318 ), #62, .T. ) ;
#154 = DATE_TIME_ROLE ( 'classification_date' ) ;
#155 = APPROVAL_PERSON_ORGANIZATION ( #252, #177, #222 ) ;
#156 = DIRECTION ( 'NONE',  ( -3.491481338843133355E-15, 1.224646799147353207E-16, -1.000000000000000000 ) ) ;
#157 = EDGE_CURVE ( 'NONE', #136, #64, #97, .T. ) ;
#158 = ORIENTED_EDGE ( 'NONE', *, *, #132, .F. ) ;
#159 = MANIFOLD_SOLID_BREP ( 'Corps-Déplacer/Copier1[2]', #223 ) ;
#160 = ORIENTED_EDGE ( 'NONE', *, *, #116, .F. ) ;
#161 = CONICAL_SURFACE ( 'NONE', #213, 1.750000000000000000, 0.7853981633974476129 ) ;
#162 = FACE_OUTER_BOUND ( 'NONE', #108, .T. ) ;
#163 = LINE ( 'NONE', #48, #296 ) ;
#164 = CARTESIAN_POINT ( 'NONE',  ( 0.0000000000000000000, 0.0000000000000000000, 0.0000000000000000000 ) ) ;
#165 = CC_DESIGN_PERSON_AND_ORGANIZATION_ASSIGNMENT ( #203, #275, ( #276 ) ) ;
#166 = CARTESIAN_POINT ( 'NONE',  ( 1.640996229256272803E-13, 2.249999999999990230, 47.00000000000000000 ) ) ;
#167 = ORIENTED_EDGE ( 'NONE', *, *, #81, .T. ) ;
#168 = FACE_OUTER_BOUND ( 'NONE', #274, .T. ) ;
#169 = AXIS2_PLACEMENT_3D ( 'NONE', #123, #321, #323 ) ;
#170 = CARTESIAN_POINT ( 'NONE',  ( 0.0000000000000000000, 0.0000000000000000000, 0.0000000000000000000 ) ) ;
#171 = ORIENTED_EDGE ( 'NONE', *, *, #16, .T. ) ;
#172 = CARTESIAN_POINT ( 'NONE',  ( 1.640996229256272803E-13, 2.249999999999990230, 47.00000000000000000 ) ) ;
#173 = CARTESIAN_POINT ( 'NONE',  ( 2.775727664380291081E-13, 2.249999999999990230, 79.50000000000000000 ) ) ;
#174 = DATE_AND_TIME ( #104, #228 ) ;
#175 = VERTEX_POINT ( 'NONE', #166 ) ;
#176 = APPROVAL_STATUS ( 'not_yet_approved' ) ;
#177 = APPROVAL ( #176, 'UNSPECIFIED' ) ;
#178 = AXIS2_PLACEMENT_3D ( 'NONE', #272, #244, #322 ) ;
#179 = PERSON_AND_ORGANIZATION_ROLE ( 'classification_officer' ) ;
#180 = APPROVAL_DATE_TIME ( #75, #282 ) ;
#181 = CC_DESIGN_APPROVAL ( #177, ( #59 ) ) ;
#182 = AXIS2_PLACEMENT_3D ( 'NONE', #145, #292, #141 ) ;
#183 = CC_DESIGN_PERSON_AND_ORGANIZATION_ASSIGNMENT ( #79, #25, ( #59 ) ) ;
#184 = EDGE_LOOP ( 'NONE', ( #206, #19, #129, #291 ) ) ;
#185 = ORIENTED_EDGE ( 'NONE', *, *, #334, .T. ) ;
#186 = VECTOR ( 'NONE', #13, 1000.000000000000000 ) ;
#187 = ORIENTED_EDGE ( 'NONE', *, *, #305, .T. ) ;
#188 = ORIENTED_EDGE ( 'NONE', *, *, #132, .T. ) ;
#189 = DIRECTION ( 'NONE',  ( 3.491481338843133355E-15, -1.224646799147353207E-16, 1.000000000000000000 ) ) ;
#190 = CARTESIAN_POINT ( 'NONE',  ( 9.620620753268145917E-31, 2.249999999999997780, 2.755455298081541820E-16 ) ) ;
#191 = AXIS2_PLACEMENT_3D ( 'NONE', #39, #240, #121 ) ;
#192 = ADVANCED_FACE ( 'NONE', ( #7 ), #263, .T. ) ;
#193 = LINE ( 'NONE', #94, #12 ) ;
#194 = DIRECTION ( 'NONE',  ( 0.0000000000000000000, 1.000000000000000000, 0.0000000000000000000 ) ) ;
#195 = ORIENTED_EDGE ( 'NONE', *, *, #226, .T. ) ;
#196 = CARTESIAN_POINT ( 'NONE',  ( 0.0000000000000000000, 0.0000000000000000000, 0.0000000000000000000 ) ) ;
#197 = DIRECTION ( 'NONE',  ( 4.275831445896957731E-31, 1.000000000000000000, 1.224646799147353207E-16 ) ) ;
#198 = CIRCLE ( 'NONE', #169, 2.249999999999996003 ) ;
#199 = LINE ( 'NONE', #190, #186 ) ;
#200 = ORIENTED_EDGE ( 'NONE', *, *, #334, .F. ) ;
#201 = PERSON_AND_ORGANIZATION_ROLE ( 'creator' ) ;
#202 = ORIENTED_EDGE ( 'NONE', *, *, #226, .F. ) ;
#203 = PERSON_AND_ORGANIZATION ( #253, #58 ) ;
#204 = LOCAL_TIME ( 15, 37, 59.00000000000000000, #80 ) ;
#205 = CIRCLE ( 'NONE', #249, 1.750000000000000000 ) ;
#206 = ORIENTED_EDGE ( 'NONE', *, *, #81, .F. ) ;
#207 = CARTESIAN_POINT ( 'NONE',  ( 2.211117402116363041E-13, -2.250000000000001776, 47.00000000000000000 ) ) ;
#208 = ADVANCED_FACE ( 'NONE', ( #20 ), #87, .T. ) ;
#209 = ORIENTED_EDGE ( 'NONE', *, *, #257, .T. ) ;
#210 = EDGE_CURVE ( 'NONE', #247, #29, #224, .T. ) ;
#211 = CARTESIAN_POINT ( 'NONE',  ( 1.640996229256272803E-13, -5.755839955992560641E-15, 47.00000000000000000 ) ) ;
#212 = DIRECTION ( 'NONE',  ( -3.491481338843133355E-15, 1.224646799147353207E-16, -1.000000000000000000 ) ) ;
#213 = AXIS2_PLACEMENT_3D ( 'NONE', #133, #298, #17 ) ;
#214 = VERTEX_POINT ( 'NONE', #217 ) ;
#215 =( LENGTH_UNIT ( ) NAMED_UNIT ( * ) SI_UNIT ( .MILLI., .METRE. ) );
#216 = CYLINDRICAL_SURFACE ( 'NONE', #4, 2.249999999999997780 ) ;
#217 = CARTESIAN_POINT ( 'NONE',  ( 4.720260686806066852E-15, -2.249999999999990230, 1.351936392812019605 ) ) ;
#218 = DIRECTION ( 'NONE',  ( -2.382254525458718258E-15, -0.7071067811865469066, -0.7071067811865482389 ) ) ;
#219 = CC_DESIGN_SECURITY_CLASSIFICATION ( #38, ( #59 ) ) ;
#220 = APPLICATION_CONTEXT ( 'configuration controlled 3d designs of mechanical parts and assemblies' ) ;
#221 = FACE_OUTER_BOUND ( 'NONE', #150, .T. ) ;
#222 = APPROVAL_ROLE ( '' ) ;
#223 = CLOSED_SHELL ( 'NONE', ( #138, #208, #306, #337, #192 ) ) ;
#224 = LINE ( 'NONE', #148, #21 ) ;
#225 = APPROVAL_DATE_TIME ( #174, #131 ) ;
#226 = EDGE_CURVE ( 'NONE', #29, #214, #320, .T. ) ;
#227 = SECURITY_CLASSIFICATION_LEVEL ( 'unclassified' ) ;
#228 = LOCAL_TIME ( 15, 37, 59.00000000000000000, #127 ) ;
#229 = CC_DESIGN_APPROVAL ( #282, ( #276 ) ) ;
#230 = CALENDAR_DATE ( 2021, 2, 9 ) ;
#231 = AXIS2_PLACEMENT_3D ( 'NONE', #326, #122, #66 ) ;
#232 = VERTEX_POINT ( 'NONE', #8 ) ;
#233 = AXIS2_PLACEMENT_3D ( 'NONE', #211, #212, #95 ) ;
#234 = EDGE_CURVE ( 'NONE', #232, #64, #45, .T. ) ;
#235 = ORIENTED_EDGE ( 'NONE', *, *, #55, .F. ) ;
#236 = DIRECTION ( 'NONE',  ( 0.0000000000000000000, 1.000000000000000000, 0.0000000000000000000 ) ) ;
#237 = DIRECTION ( 'NONE',  ( -2.468850131082267316E-15, 0.7071067811865471286, -0.7071067811865479058 ) ) ;
#238 = DIRECTION ( 'NONE',  ( 0.0000000000000000000, 1.000000000000000000, 0.0000000000000000000 ) ) ;
#239 = DIRECTION ( 'NONE',  ( 1.798245827342160317E-15, -0.8571673007021098911, 0.5150380749100582634 ) ) ;
#240 = DIRECTION ( 'NONE',  ( 3.491481338843133355E-15, -1.224646799147353207E-16, 1.000000000000000000 ) ) ;
#241 = ORIENTED_EDGE ( 'NONE', *, *, #60, .T. ) ;
#242 = CARTESIAN_POINT ( 'NONE',  ( 2.793185071074506684E-13, -9.797174393178826052E-15, 80.00000000000000000 ) ) ;
#243 = CARTESIAN_POINT ( 'NONE',  ( 2.793185071074506684E-13, -9.797174393178826052E-15, 80.00000000000000000 ) ) ;
#244 = DIRECTION ( 'NONE',  ( 3.491481338843133355E-15, -1.224646799147353207E-16, 1.000000000000000000 ) ) ;
#245 = COORDINATED_UNIVERSAL_TIME_OFFSET ( 1, 0, .AHEAD. ) ;
#246 = DIRECTION ( 'NONE',  ( 3.491481338843133355E-15, -1.224646799147353207E-16, 1.000000000000000000 ) ) ;
#247 = VERTEX_POINT ( 'NONE', #164 ) ;
#248 = PERSON_AND_ORGANIZATION ( #253, #58 ) ;
#249 = AXIS2_PLACEMENT_3D ( 'NONE', #243, #260, #238 ) ;
#250 = CALENDAR_DATE ( 2021, 2, 9 ) ;
#251 = ORIENTED_EDGE ( 'NONE', *, *, #256, .F. ) ;
#252 = PERSON_AND_ORGANIZATION ( #253, #58 ) ;
#253 = PERSON ( 'UNSPECIFIED', 'UNSPECIFIED', 'UNSPECIFIED', ('UNSPECIFIED'), ('UNSPECIFIED'), ('UNSPECIFIED') ) ;
#254 = VECTOR ( 'NONE', #156, 1000.000000000000000 ) ;
#255 = ORIENTED_EDGE ( 'NONE', *, *, #116, .T. ) ;
#256 = EDGE_CURVE ( 'NONE', #247, #214, #193, .T. ) ;
#257 = EDGE_CURVE ( 'NONE', #3, #175, #281, .T. ) ;
#258 = ORIENTED_EDGE ( 'NONE', *, *, #134, .T. ) ;
#259 = ORIENTED_EDGE ( 'NONE', *, *, #305, .F. ) ;
#260 = DIRECTION ( 'NONE',  ( -3.491481338843133355E-15, 1.224646799147353207E-16, -1.000000000000000000 ) ) ;
#261 = CARTESIAN_POINT ( 'NONE',  ( 1.640996229256272803E-13, 1.687229755494578314E-32, 47.00000000000000000 ) ) ;
#262 = UNCERTAINTY_MEASURE_WITH_UNIT (LENGTH_MEASURE( 1.000000000000000082E-05 ), #215, 'distance_accuracy_value', 'NONE');
#263 = PLANE ( 'NONE',  #191 ) ;
#264 = LOCAL_TIME ( 15, 37, 59.00000000000000000, #245 ) ;
#265 = EDGE_LOOP ( 'NONE', ( #54, #271, #110, #288 ) ) ;
#266 = DIRECTION ( 'NONE',  ( -3.491481338843133355E-15, 1.224646799147353207E-16, -1.000000000000000000 ) ) ;
#267 = CLOSED_SHELL ( 'NONE', ( #23, #109, #328, #88, #153, #139 ) ) ;
#268 = DIRECTION ( 'NONE',  ( 0.0000000000000000000, 1.000000000000000000, 0.0000000000000000000 ) ) ;
#269 = DIRECTION ( 'NONE',  ( 4.275831445896957731E-31, 1.000000000000000000, 1.224646799147353207E-16 ) ) ;
#270 = MANIFOLD_SOLID_BREP ( 'Corps-Déplacer/Copier1[1]', #267 ) ;
#271 = ORIENTED_EDGE ( 'NONE', *, *, #84, .T. ) ;
#272 = CARTESIAN_POINT ( 'NONE',  ( 4.720260686806067641E-15, -1.655644576108058762E-16, 1.351936392812019827 ) ) ;
#273 = DIRECTION ( 'NONE',  ( 4.275831445896958607E-31, 1.000000000000000000, 1.224646799147353207E-16 ) ) ;
#274 = EDGE_LOOP ( 'NONE', ( #258, #171, #202, #259 ) ) ;
#275 = PERSON_AND_ORGANIZATION_ROLE ( 'creator' ) ;
#276 = PRODUCT_DEFINITION ( 'UNKNOWN', '', #59, #115 ) ;
#277 = VERTEX_POINT ( 'NONE', #172 ) ;
#278 = PERSON_AND_ORGANIZATION ( #253, #58 ) ;
#279 = AXIS2_PLACEMENT_3D ( 'NONE', #71, #317, #325 ) ;
#280 = CALENDAR_DATE ( 2021, 2, 9 ) ;
#281 = CIRCLE ( 'NONE', #182, 2.249999999999996003 ) ;
#282 = APPROVAL ( #51, 'UNSPECIFIED' ) ;
#283 = LINE ( 'NONE', #56, #254 ) ;
#284 = VERTEX_POINT ( 'NONE', #11 ) ;
#285 = LINE ( 'NONE', #112, #312 ) ;
#286 = CONICAL_SURFACE ( 'NONE', #178, 2.249999999999990230, 1.029744258676649649 ) ;
#287 = DIRECTION ( 'NONE',  ( -3.491481338843133355E-15, 1.224646799147353207E-16, -1.000000000000000000 ) ) ;
#288 = ORIENTED_EDGE ( 'NONE', *, *, #157, .F. ) ;
#289 = FACE_OUTER_BOUND ( 'NONE', #10, .T. ) ;
#290 = CARTESIAN_POINT ( 'NONE',  ( 2.793185071074506684E-13, -9.797174393178826052E-15, 80.00000000000000000 ) ) ;
#291 = ORIENTED_EDGE ( 'NONE', *, *, #257, .F. ) ;
#292 = DIRECTION ( 'NONE',  ( -3.491481338843133355E-15, 1.224646799147353207E-16, -1.000000000000000000 ) ) ;
#293 = CYLINDRICAL_SURFACE ( 'NONE', #53, 2.249999999999997780 ) ;
#294 = DIRECTION ( 'NONE',  ( -3.491481338843133355E-15, 1.224646799147353207E-16, -1.000000000000000000 ) ) ;
#295 = LINE ( 'NONE', #63, #43 ) ;
#296 = VECTOR ( 'NONE', #144, 1000.000000000000000 ) ;
#297 = DIRECTION ( 'NONE',  ( -3.491481338843133355E-15, 1.224646799147353207E-16, -1.000000000000000000 ) ) ;
#298 = DIRECTION ( 'NONE',  ( -3.491481338843133355E-15, 1.224646799147353207E-16, -1.000000000000000000 ) ) ;
#299 = DATE_AND_TIME ( #280, #49 ) ;
#300 = ORIENTED_EDGE ( 'NONE', *, *, #210, .T. ) ;
#301 = ORIENTED_EDGE ( 'NONE', *, *, #256, .T. ) ;
#302 = PERSON_AND_ORGANIZATION ( #253, #58 ) ;
#303 = CALENDAR_DATE ( 2021, 2, 9 ) ;
#304 = AXIS2_PLACEMENT_3D ( 'NONE', #14, #294, #47 ) ;
#305 = EDGE_CURVE ( 'NONE', #277, #29, #285, .T. ) ;
#306 = ADVANCED_FACE ( 'NONE', ( #41 ), #286, .T. ) ;
#307 = PERSON_AND_ORGANIZATION ( #253, #58 ) ;
#308 = APPROVAL_PERSON_ORGANIZATION ( #302, #282, #52 ) ;
#309 = LOCAL_TIME ( 15, 37, 59.00000000000000000, #74 ) ;
#310 = ORIENTED_EDGE ( 'NONE', *, *, #16, .F. ) ;
#311 = AXIS2_PLACEMENT_3D ( 'NONE', #96, #266, #44 ) ;
#312 = VECTOR ( 'NONE', #297, 1000.000000000000000 ) ;
#313 = EDGE_CURVE ( 'NONE', #232, #284, #26, .T. ) ;
#314 = APPLICATION_CONTEXT ( 'configuration controlled 3d designs of mechanical parts and assemblies' ) ;
#315 = EDGE_LOOP ( 'NONE', ( #251, #300, #195 ) ) ;
#316 = ORIENTED_EDGE ( 'NONE', *, *, #234, .F. ) ;
#317 = DIRECTION ( 'NONE',  ( -3.491481338843133355E-15, 1.224646799147353207E-16, -1.000000000000000000 ) ) ;
#318 = FACE_OUTER_BOUND ( 'NONE', #265, .T. ) ;
#319 = DIRECTION ( 'NONE',  ( 1.903218546456022717E-15, 0.8571673007021097801, 0.5150380749100585964 ) ) ;
#320 = CIRCLE ( 'NONE', #304, 2.249999999999990230 ) ;
#321 = DIRECTION ( 'NONE',  ( -3.491481338843133355E-15, 1.224646799147353207E-16, -1.000000000000000000 ) ) ;
#322 = DIRECTION ( 'NONE',  ( -3.423875456688434280E-31, -1.000000000000000000, -9.637352644315637151E-17 ) ) ;
#323 = DIRECTION ( 'NONE',  ( 0.0000000000000000000, 1.000000000000000000, 0.0000000000000000000 ) ) ;
#324 = EDGE_LOOP ( 'NONE', ( #50, #200 ) ) ;
#325 = DIRECTION ( 'NONE',  ( 4.275831445896958607E-31, 1.000000000000000000, 1.224646799147353454E-16 ) ) ;
#326 = CARTESIAN_POINT ( 'NONE',  ( 2.775727664380291081E-13, -9.735942053221458478E-15, 79.50000000000000000 ) ) ;
#327 = APPLICATION_PROTOCOL_DEFINITION ( 'international standard', 'config_control_design', 1994, #220 ) ;
#328 = ADVANCED_FACE ( 'NONE', ( #289 ), #119, .F. ) ;
#329 = DIRECTION ( 'NONE',  ( -3.491481338843133355E-15, 1.224646799147353207E-16, -1.000000000000000000 ) ) ;
#330 = AXIS2_PLACEMENT_3D ( 'NONE', #290, #142, #236 ) ;
#331 = DATE_AND_TIME ( #230, #309 ) ;
#332 = CARTESIAN_POINT ( 'NONE',  ( 4.720260686806067641E-15, -1.655644576108058762E-16, 1.351936392812019827 ) ) ;
#333 = PERSON_AND_ORGANIZATION_ROLE ( 'design_owner' ) ;
#334 = EDGE_CURVE ( 'NONE', #34, #277, #30, .T. ) ;
#335 = APPROVAL_DATE_TIME ( #331, #177 ) ;
#336 =( GEOMETRIC_REPRESENTATION_CONTEXT ( 3 ) GLOBAL_UNCERTAINTY_ASSIGNED_CONTEXT ( ( #262 ) ) GLOBAL_UNIT_ASSIGNED_CONTEXT ( ( #215, #143, #89 ) ) REPRESENTATION_CONTEXT ( 'NONE', 'WORKASPACE' ) );
#337 = ADVANCED_FACE ( 'NONE', ( #162 ), #68, .T. ) ;
ENDSEC;
END-ISO-10303-21;
