ISO-10303-21;
HEADER;
FILE_DESCRIPTION (( 'STEP AP203' ),
    '1' );
FILE_NAME ('53741.step',
    '2021-09-02T13:37:55',
    ( '' ),
    ( '' ),
    'SwSTEP 2.0',
    'SolidWorks 2019',
    '' );
FILE_SCHEMA (( 'CONFIG_CONTROL_DESIGN' ));
ENDSEC;

DATA;
#1 = PERSON_AND_ORGANIZATION ( #290, #104 ) ;
#2 = PERSON_AND_ORGANIZATION ( #290, #104 ) ;
#3 = FACE_OUTER_BOUND ( 'NONE', #322, .T. ) ;
#4 = AXIS2_PLACEMENT_3D ( 'NONE', #192, #151, #328 ) ;
#5 = VECTOR ( 'NONE', #119, 1000.000000000000000 ) ;
#6 = APPROVAL_ROLE ( '' ) ;
#7 = APPROVAL_ROLE ( '' ) ;
#8 = CARTESIAN_POINT ( 'NONE',  ( 4.218680805140895295E-15, 1.899999999999990807, 1.141635176152371756 ) ) ;
#9 = APPROVAL_DATE_TIME ( #105, #84 ) ;
#10 = AXIS2_PLACEMENT_3D ( 'NONE', #219, #50, #254 ) ;
#11 = DIRECTION ( 'NONE',  ( 0.0000000000000000000, 1.000000000000000000, 0.0000000000000000000 ) ) ;
#12 = ADVANCED_FACE ( 'NONE', ( #173 ), #140, .F. ) ;
#13 = CONICAL_SURFACE ( 'NONE', #10, 1.899999999999991029, 1.029744258676649871 ) ;
#14 = CARTESIAN_POINT ( 'NONE',  ( 2.620447974331071044E-13, -1.500000000000009104, 75.00000000000000000 ) ) ;
#15 = DIRECTION ( 'NONE',  ( 0.0000000000000000000, 1.000000000000000000, 0.0000000000000000000 ) ) ;
#16 = PLANE ( 'NONE',  #319 ) ;
#17 = DIRECTION ( 'NONE',  ( -3.491481338843133355E-15, 1.224646799147353207E-16, -1.000000000000000000 ) ) ;
#18 = CARTESIAN_POINT ( 'NONE',  ( 2.618611004132350143E-13, 1.124819836996379521E-32, 75.00000000000000000 ) ) ;
#19 = CARTESIAN_POINT ( 'NONE',  ( 2.618611004132350143E-13, 1.499999999999990896, 75.00000000000000000 ) ) ;
#20 = CARTESIAN_POINT ( 'NONE',  ( 3.985997913302899144E-15, -1.398099864269026500E-16, 1.141635176152371534 ) ) ;
#21 = ORIENTED_EDGE ( 'NONE', *, *, #337, .T. ) ;
#22 = ORIENTED_EDGE ( 'NONE', *, *, #89, .F. ) ;
#23 = ORIENTED_EDGE ( 'NONE', *, *, #51, .F. ) ;
#24 = VERTEX_POINT ( 'NONE', #146 ) ;
#25 = CIRCLE ( 'NONE', #157, 1.500000000000000000 ) ;
#26 = ORIENTED_EDGE ( 'NONE', *, *, #204, .T. ) ;
#27 = DATE_AND_TIME ( #129, #149 ) ;
#28 = PRODUCT_RELATED_PRODUCT_CATEGORY ( 'detail', '', ( #97 ) ) ;
#29 = APPLICATION_PROTOCOL_DEFINITION ( 'international standard', 'config_control_design', 1994, #124 ) ;
#30 = AXIS2_PLACEMENT_3D ( 'NONE', #95, #200, #126 ) ;
#31 = LOCAL_TIME ( 15, 37, 55.00000000000000000, #135 ) ;
#32 = APPLICATION_CONTEXT ( 'configuration controlled 3d designs of mechanical parts and assemblies' ) ;
#33 = CALENDAR_DATE ( 2021, 2, 9 ) ;
#34 = EDGE_LOOP ( 'NONE', ( #152, #246, #232, #130 ) ) ;
#35 = ADVANCED_FACE ( 'NONE', ( #153 ), #125, .T. ) ;
#36 = AXIS2_PLACEMENT_3D ( 'NONE', #326, #142, #197 ) ;
#37 = CC_DESIGN_PERSON_AND_ORGANIZATION_ASSIGNMENT ( #184, #283, ( #228 ) ) ;
#38 = CC_DESIGN_APPROVAL ( #96, ( #228 ) ) ;
#39 = LOCAL_TIME ( 15, 37, 55.00000000000000000, #229 ) ;
#40 = CARTESIAN_POINT ( 'NONE',  ( 3.985997913302899144E-15, -1.398099864269026500E-16, 1.141635176152371534 ) ) ;
#41 = DIRECTION ( 'NONE',  ( -3.491481338843133355E-15, 1.224646799147353207E-16, -1.000000000000000000 ) ) ;
#42 = ORIENTED_EDGE ( 'NONE', *, *, #227, .F. ) ;
#43 = FACE_OUTER_BOUND ( 'NONE', #34, .T. ) ;
#44 = CARTESIAN_POINT ( 'NONE',  ( 0.0000000000000000000, 0.0000000000000000000, 0.0000000000000000000 ) ) ;
#45 = EDGE_LOOP ( 'NONE', ( #171, #74, #225, #75 ) ) ;
#46 = CARTESIAN_POINT ( 'NONE',  ( 2.604645078776977357E-13, 1.899999999999990807, 74.59999999999999432 ) ) ;
#47 = VECTOR ( 'NONE', #287, 1000.000000000000114 ) ;
#48 = DIRECTION ( 'NONE',  ( 4.275831445896957731E-31, 1.000000000000000000, 1.224646799147353207E-16 ) ) ;
#49 = CC_DESIGN_DATE_AND_TIME_ASSIGNMENT ( #181, #132, ( #107 ) ) ;
#50 = DIRECTION ( 'NONE',  ( 3.491481338843133355E-15, -1.224646799147353207E-16, 1.000000000000000000 ) ) ;
#51 = EDGE_CURVE ( 'NONE', #295, #336, #226, .T. ) ;
#52 = ORIENTED_EDGE ( 'NONE', *, *, #266, .F. ) ;
#53 = DIRECTION ( 'NONE',  ( 1.000000000000000000, 0.0000000000000000000, 0.0000000000000000000 ) ) ;
#54 = CIRCLE ( 'NONE', #4, 1.500000000000000000 ) ;
#55 = EDGE_LOOP ( 'NONE', ( #127, #137 ) ) ;
#56 = COORDINATED_UNIVERSAL_TIME_OFFSET ( 1, 0, .AHEAD. ) ;
#57 = PERSON_AND_ORGANIZATION ( #290, #104 ) ;
#58 = ADVANCED_FACE ( 'NONE', ( #64 ), #148, .T. ) ;
#59 = APPROVAL_STATUS ( 'not_yet_approved' ) ;
#60 = APPLICATION_PROTOCOL_DEFINITION ( 'international standard', 'config_control_design', 1994, #32 ) ;
#61 = CONICAL_SURFACE ( 'NONE', #109, 1.500000000000000000, 0.7853981633974512766 ) ;
#62 = DIRECTION ( 'NONE',  ( -3.491481338843133355E-15, 1.224646799147353207E-16, -1.000000000000000000 ) ) ;
#63 =( LENGTH_UNIT ( ) NAMED_UNIT ( * ) SI_UNIT ( .MILLI., .METRE. ) );
#64 = FACE_OUTER_BOUND ( 'NONE', #274, .T. ) ;
#65 = CARTESIAN_POINT ( 'NONE',  ( 2.055317856158141396E-13, -1.900000000000009015, 74.59999999999999432 ) ) ;
#66 = EDGE_CURVE ( 'NONE', #195, #267, #54, .T. ) ;
#67 = ORIENTED_EDGE ( 'NONE', *, *, #168, .F. ) ;
#68 = DIRECTION ( 'NONE',  ( -2.468850131082257455E-15, 0.7071067811865497932, -0.7071067811865453523 ) ) ;
#69 = DIRECTION ( 'NONE',  ( -3.491481338843133355E-15, 1.224646799147353207E-16, -1.000000000000000000 ) ) ;
#70 = VERTEX_POINT ( 'NONE', #90 ) ;
#71 = CONICAL_SURFACE ( 'NONE', #303, 1.500000000000000000, 0.7853981633974512766 ) ;
#72 = CARTESIAN_POINT ( 'NONE',  ( 8.124079747204212419E-31, 1.899999999999998135, 2.326828918379968900E-16 ) ) ;
#73 = EDGE_CURVE ( 'NONE', #248, #295, #239, .T. ) ;
#74 = ORIENTED_EDGE ( 'NONE', *, *, #73, .T. ) ;
#75 = ORIENTED_EDGE ( 'NONE', *, *, #337, .F. ) ;
#76 = CALENDAR_DATE ( 2021, 2, 9 ) ;
#77 = CARTESIAN_POINT ( 'NONE',  ( 3.985997913302898355E-15, -1.899999999999991251, 1.141635176152371312 ) ) ;
#78 = APPROVAL_STATUS ( 'not_yet_approved' ) ;
#79 = COORDINATED_UNIVERSAL_TIME_OFFSET ( 1, 0, .AHEAD. ) ;
#80 = PERSON_AND_ORGANIZATION_ROLE ( 'creator' ) ;
#81 = LINE ( 'NONE', #14, #47 ) ;
#82 = SECURITY_CLASSIFICATION ( '', '', #98 ) ;
#83 = FACE_OUTER_BOUND ( 'NONE', #269, .T. ) ;
#84 = APPROVAL ( #234, 'UNSPECIFIED' ) ;
#85 = DIRECTION ( 'NONE',  ( 0.0000000000000000000, 1.000000000000000000, 0.0000000000000000000 ) ) ;
#86 = ORIENTED_EDGE ( 'NONE', *, *, #164, .F. ) ;
#87 = AXIS2_PLACEMENT_3D ( 'NONE', #179, #41, #243 ) ;
#88 = CIRCLE ( 'NONE', #262, 1.899999999999996136 ) ;
#89 = EDGE_CURVE ( 'NONE', #167, #230, #188, .T. ) ;
#90 = CARTESIAN_POINT ( 'NONE',  ( 2.055317856158142154E-13, -1.900000000000001243, 43.00000000000000000 ) ) ;
#91 = ORIENTED_EDGE ( 'NONE', *, *, #261, .T. ) ;
#92 = CYLINDRICAL_SURFACE ( 'NONE', #273, 1.899999999999993694 ) ;
#93 = CARTESIAN_POINT ( 'NONE',  ( 1.501336975702547217E-13, 1.424771793528753780E-32, 43.00000000000000000 ) ) ;
#94 = CARTESIAN_POINT ( 'NONE',  ( 1.501336975702547217E-13, -5.265981236333618470E-15, 43.00000000000000000 ) ) ;
#95 = CARTESIAN_POINT ( 'NONE',  ( 0.0000000000000000000, 0.0000000000000000000, 0.0000000000000000000 ) ) ;
#96 = APPROVAL ( #78, 'UNSPECIFIED' ) ;
#97 = PRODUCT ( '53741', '53741', '', ( #205 ) ) ;
#98 = SECURITY_CLASSIFICATION_LEVEL ( 'unclassified' ) ;
#99 = CIRCLE ( 'NONE', #285, 1.899999999999991029 ) ;
#100 = CARTESIAN_POINT ( 'NONE',  ( 8.124079747204194903E-31, 1.899999999999993694, 2.326828918379963476E-16 ) ) ;
#101 = ORIENTED_EDGE ( 'NONE', *, *, #168, .T. ) ;
#102 = DATE_AND_TIME ( #335, #39 ) ;
#103 = PERSON_AND_ORGANIZATION ( #290, #104 ) ;
#104 = ORGANIZATION ( 'UNSPECIFIED', 'UNSPECIFIED', '' ) ;
#105 = DATE_AND_TIME ( #33, #128 ) ;
#106 = DIRECTION ( 'NONE',  ( 1.903218546456021928E-15, 0.8571673007021098911, 0.5150380749100583744 ) ) ;
#107 = PRODUCT_DEFINITION ( 'UNKNOWN', '', #228, #186 ) ;
#108 = AXIS2_PLACEMENT_3D ( 'NONE', #18, #299, #120 ) ;
#109 = AXIS2_PLACEMENT_3D ( 'NONE', #206, #278, #282 ) ;
#110 = FACE_OUTER_BOUND ( 'NONE', #256, .T. ) ;
#111 = CC_DESIGN_APPROVAL ( #317, ( #107 ) ) ;
#112 = CC_DESIGN_DATE_AND_TIME_ASSIGNMENT ( #27, #313, ( #82 ) ) ;
#113 = FACE_OUTER_BOUND ( 'NONE', #207, .T. ) ;
#114 = ADVANCED_FACE ( 'NONE', ( #330 ), #16, .T. ) ;
#115 = DIRECTION ( 'NONE',  ( 0.0000000000000000000, 1.000000000000000000, 0.0000000000000000000 ) ) ;
#116 = CARTESIAN_POINT ( 'NONE',  ( 3.985997913302899144E-15, -1.398099864269026500E-16, 1.141635176152371534 ) ) ;
#117 = CLOSED_SHELL ( 'NONE', ( #187, #123, #215, #35, #245, #12 ) ) ;
#118 = CIRCLE ( 'NONE', #176, 1.899999999999996136 ) ;
#119 = DIRECTION ( 'NONE',  ( 1.798245827342159528E-15, -0.8571673007021100021, 0.5150380749100580413 ) ) ;
#120 = DIRECTION ( 'NONE',  ( 4.275831445896958607E-31, 1.000000000000000000, 1.224646799147353207E-16 ) ) ;
#121 = ORIENTED_EDGE ( 'NONE', *, *, #227, .T. ) ;
#122 = CARTESIAN_POINT ( 'NONE',  ( 2.326828918379960518E-16, -1.899999999999998135, -2.326828918379976295E-16 ) ) ;
#123 = ADVANCED_FACE ( 'NONE', ( #198 ), #271, .T. ) ;
#124 = APPLICATION_CONTEXT ( 'configuration controlled 3d designs of mechanical parts and assemblies' ) ;
#125 = CYLINDRICAL_SURFACE ( 'NONE', #235, 1.899999999999998135 ) ;
#126 = DIRECTION ( 'NONE',  ( 4.275831445896957731E-31, 1.000000000000000000, 1.224646799147353207E-16 ) ) ;
#127 = ORIENTED_EDGE ( 'NONE', *, *, #182, .F. ) ;
#128 = LOCAL_TIME ( 15, 37, 55.00000000000000000, #56 ) ;
#129 = CALENDAR_DATE ( 2021, 2, 9 ) ;
#130 = ORIENTED_EDGE ( 'NONE', *, *, #73, .F. ) ;
#131 = EDGE_CURVE ( 'NONE', #255, #167, #302, .T. ) ;
#132 = DATE_TIME_ROLE ( 'creation_date' ) ;
#133 = APPROVAL_ROLE ( '' ) ;
#134 = AXIS2_PLACEMENT_3D ( 'NONE', #20, #175, #222 ) ;
#135 = COORDINATED_UNIVERSAL_TIME_OFFSET ( 1, 0, .AHEAD. ) ;
#136 = AXIS2_PLACEMENT_3D ( 'NONE', #116, #297, #306 ) ;
#137 = ORIENTED_EDGE ( 'NONE', *, *, #292, .F. ) ;
#138 = AXIS2_PLACEMENT_3D ( 'NONE', #231, #310, #53 ) ;
#139 = DIRECTION ( 'NONE',  ( -3.491481338843133355E-15, 1.224646799147353207E-16, -1.000000000000000000 ) ) ;
#140 = PLANE ( 'NONE',  #108 ) ;
#141 = PRODUCT_DEFINITION_SHAPE ( 'NONE', 'NONE',  #107 ) ;
#142 = DIRECTION ( 'NONE',  ( -3.491481338843133355E-15, 1.224646799147353207E-16, -1.000000000000000000 ) ) ;
#143 = EDGE_LOOP ( 'NONE', ( #121, #260, #251, #23 ) ) ;
#144 = ORIENTED_EDGE ( 'NONE', *, *, #131, .F. ) ;
#145 = CARTESIAN_POINT ( 'NONE',  ( 3.985997913302898355E-15, -1.899999999999991251, 1.141635176152371312 ) ) ;
#146 = CARTESIAN_POINT ( 'NONE',  ( 1.501336975702547217E-13, 1.899999999999990807, 43.00000000000000000 ) ) ;
#147 = ORIENTED_EDGE ( 'NONE', *, *, #238, .T. ) ;
#148 = CONICAL_SURFACE ( 'NONE', #136, 1.899999999999991029, 1.029744258676649871 ) ;
#149 = LOCAL_TIME ( 15, 37, 55.00000000000000000, #79 ) ;
#150 = DIRECTION ( 'NONE',  ( -3.491481338843133355E-15, 1.224646799147353207E-16, -1.000000000000000000 ) ) ;
#151 = DIRECTION ( 'NONE',  ( -3.491481338843133355E-15, 1.224646799147353207E-16, -1.000000000000000000 ) ) ;
#152 = ORIENTED_EDGE ( 'NONE', *, *, #204, .F. ) ;
#153 = FACE_OUTER_BOUND ( 'NONE', #45, .T. ) ;
#154 = PERSON_AND_ORGANIZATION_ROLE ( 'design_owner' ) ;
#155 = CC_DESIGN_PERSON_AND_ORGANIZATION_ASSIGNMENT ( #160, #80, ( #107 ) ) ;
#156 = ORIENTED_EDGE ( 'NONE', *, *, #66, .F. ) ;
#157 = AXIS2_PLACEMENT_3D ( 'NONE', #216, #286, #11 ) ;
#158 = ADVANCED_FACE ( 'NONE', ( #113 ), #13, .T. ) ;
#159 = ORIENTED_EDGE ( 'NONE', *, *, #89, .T. ) ;
#160 = PERSON_AND_ORGANIZATION ( #290, #104 ) ;
#161 = DIRECTION ( 'NONE',  ( -3.491481338843133355E-15, 1.224646799147353207E-16, -1.000000000000000000 ) ) ;
#162 = PERSON_AND_ORGANIZATION ( #290, #104 ) ;
#163 = VECTOR ( 'NONE', #258, 1000.000000000000000 ) ;
#164 = EDGE_CURVE ( 'NONE', #24, #230, #334, .T. ) ;
#165 = CLOSED_SHELL ( 'NONE', ( #323, #158, #58, #214, #114 ) ) ;
#166 = VECTOR ( 'NONE', #169, 1000.000000000000000 ) ;
#167 = VERTEX_POINT ( 'NONE', #77 ) ;
#168 = EDGE_CURVE ( 'NONE', #250, #230, #309, .T. ) ;
#169 = DIRECTION ( 'NONE',  ( -3.491481338843133355E-15, 1.224646799147353207E-16, -1.000000000000000000 ) ) ;
#170 =( GEOMETRIC_REPRESENTATION_CONTEXT ( 3 ) GLOBAL_UNCERTAINTY_ASSIGNED_CONTEXT ( ( #183 ) ) GLOBAL_UNIT_ASSIGNED_CONTEXT ( ( #63, #281, #279 ) ) REPRESENTATION_CONTEXT ( 'NONE', 'WORKASPACE' ) );
#171 = ORIENTED_EDGE ( 'NONE', *, *, #308, .F. ) ;
#172 = CARTESIAN_POINT ( 'NONE',  ( 0.0000000000000000000, 0.0000000000000000000, 0.0000000000000000000 ) ) ;
#173 = FACE_OUTER_BOUND ( 'NONE', #257, .T. ) ;
#174 = CARTESIAN_POINT ( 'NONE',  ( 1.501336975702547217E-13, -5.265981236333618470E-15, 43.00000000000000000 ) ) ;
#175 = DIRECTION ( 'NONE',  ( -3.491481338843133355E-15, 1.224646799147353207E-16, -1.000000000000000000 ) ) ;
#176 = AXIS2_PLACEMENT_3D ( 'NONE', #324, #62, #265 ) ;
#177 = PLANE ( 'NONE',  #193 ) ;
#178 = DIRECTION ( 'NONE',  ( -3.491481338843133355E-15, 1.224646799147353207E-16, -1.000000000000000000 ) ) ;
#179 = CARTESIAN_POINT ( 'NONE',  ( 2.604645078776977357E-13, -9.135865121639255305E-15, 74.59999999999999432 ) ) ;
#180 = ORIENTED_EDGE ( 'NONE', *, *, #284, .F. ) ;
#181 = DATE_AND_TIME ( #76, #327 ) ;
#182 = EDGE_CURVE ( 'NONE', #24, #255, #241, .T. ) ;
#183 = UNCERTAINTY_MEASURE_WITH_UNIT (LENGTH_MEASURE( 1.000000000000000082E-05 ), #63, 'distance_accuracy_value', 'NONE');
#184 = PERSON_AND_ORGANIZATION ( #290, #104 ) ;
#185 = VECTOR ( 'NONE', #106, 1000.000000000000114 ) ;
#186 = DESIGN_CONTEXT ( 'detailed design', #124, 'design' ) ;
#187 = ADVANCED_FACE ( 'NONE', ( #3 ), #61, .T. ) ;
#188 = CIRCLE ( 'NONE', #134, 1.899999999999991029 ) ;
#189 = ORIENTED_EDGE ( 'NONE', *, *, #66, .T. ) ;
#190 = LINE ( 'NONE', #122, #166 ) ;
#191 = DIRECTION ( 'NONE',  ( 4.054589356604725958E-31, 1.000000000000000000, 1.141265444721588934E-16 ) ) ;
#192 = CARTESIAN_POINT ( 'NONE',  ( 2.618611004132350143E-13, -9.184850993605148733E-15, 75.00000000000000000 ) ) ;
#193 = AXIS2_PLACEMENT_3D ( 'NONE', #199, #298, #221 ) ;
#194 = DIRECTION ( 'NONE',  ( -3.491481338843133355E-15, 1.224646799147353207E-16, -1.000000000000000000 ) ) ;
#195 = VERTEX_POINT ( 'NONE', #311 ) ;
#196 = ORIENTED_EDGE ( 'NONE', *, *, #212, .F. ) ;
#197 = DIRECTION ( 'NONE',  ( 4.275831445896958607E-31, 1.000000000000000000, 1.224646799147353207E-16 ) ) ;
#198 = FACE_OUTER_BOUND ( 'NONE', #143, .T. ) ;
#199 = CARTESIAN_POINT ( 'NONE',  ( 1.501336975702547217E-13, 1.424771793528753780E-32, 43.00000000000000000 ) ) ;
#200 = DIRECTION ( 'NONE',  ( -3.491481338843133355E-15, 1.224646799147353207E-16, -1.000000000000000000 ) ) ;
#201 = AXIS2_PLACEMENT_3D ( 'NONE', #242, #17, #85 ) ;
#202 = ORIENTED_EDGE ( 'NONE', *, *, #284, .T. ) ;
#203 = EDGE_LOOP ( 'NONE', ( #252, #304, #180, #86 ) ) ;
#204 = EDGE_CURVE ( 'NONE', #267, #248, #81, .T. ) ;
#205 = MECHANICAL_CONTEXT ( 'NONE', #32, 'mechanical' ) ;
#206 = CARTESIAN_POINT ( 'NONE',  ( 2.618611004132350143E-13, -9.184850993605148733E-15, 75.00000000000000000 ) ) ;
#207 = EDGE_LOOP ( 'NONE', ( #244, #101, #202 ) ) ;
#208 = APPROVAL_DATE_TIME ( #102, #317 ) ;
#209 = APPROVAL_DATE_TIME ( #237, #96 ) ;
#210 = DIRECTION ( 'NONE',  ( 0.0000000000000000000, 1.000000000000000000, 0.0000000000000000000 ) ) ;
#211 = SHAPE_DEFINITION_REPRESENTATION ( #141, #217 ) ;
#212 = EDGE_CURVE ( 'NONE', #267, #195, #25, .T. ) ;
#213 = AXIS2_PLACEMENT_3D ( 'NONE', #280, #161, #210 ) ;
#214 = ADVANCED_FACE ( 'NONE', ( #110 ), #318, .T. ) ;
#215 = ADVANCED_FACE ( 'NONE', ( #83 ), #177, .F. ) ;
#216 = CARTESIAN_POINT ( 'NONE',  ( 2.618611004132350143E-13, -9.184850993605148733E-15, 75.00000000000000000 ) ) ;
#217 = ADVANCED_BREP_SHAPE_REPRESENTATION ( '53741', ( #314, #316, #138 ), #170 ) ;
#218 = LINE ( 'NONE', #145, #5 ) ;
#219 = CARTESIAN_POINT ( 'NONE',  ( 3.985997913302899144E-15, -1.398099864269026500E-16, 1.141635176152371534 ) ) ;
#220 = CC_DESIGN_SECURITY_CLASSIFICATION ( #82, ( #228 ) ) ;
#221 = DIRECTION ( 'NONE',  ( -4.275831445896958607E-31, -1.000000000000000000, -1.224646799147353207E-16 ) ) ;
#222 = DIRECTION ( 'NONE',  ( 4.054589356604725958E-31, 1.000000000000000000, 1.141265444721588934E-16 ) ) ;
#223 = CARTESIAN_POINT ( 'NONE',  ( 7.729253063361661643E-14, -1.900000000000001243, 43.00000000000000000 ) ) ;
#224 = DIRECTION ( 'NONE',  ( 3.491481338843133355E-15, -1.224646799147353207E-16, 1.000000000000000000 ) ) ;
#225 = ORIENTED_EDGE ( 'NONE', *, *, #51, .T. ) ;
#226 = LINE ( 'NONE', #72, #249 ) ;
#227 = EDGE_CURVE ( 'NONE', #295, #248, #294, .T. ) ;
#228 = PRODUCT_DEFINITION_FORMATION_WITH_SPECIFIED_SOURCE ( 'ANY', '', #97, .NOT_KNOWN. ) ;
#229 = COORDINATED_UNIVERSAL_TIME_OFFSET ( 1, 0, .AHEAD. ) ;
#230 = VERTEX_POINT ( 'NONE', #268 ) ;
#231 = CARTESIAN_POINT ( 'NONE',  ( 0.0000000000000000000, 0.0000000000000000000, 0.0000000000000000000 ) ) ;
#232 = ORIENTED_EDGE ( 'NONE', *, *, #266, .T. ) ;
#233 = CALENDAR_DATE ( 2021, 2, 9 ) ;
#234 = APPROVAL_STATUS ( 'not_yet_approved' ) ;
#235 = AXIS2_PLACEMENT_3D ( 'NONE', #44, #69, #48 ) ;
#236 = AXIS2_PLACEMENT_3D ( 'NONE', #174, #194, #115 ) ;
#237 = DATE_AND_TIME ( #233, #31 ) ;
#238 = EDGE_CURVE ( 'NONE', #336, #70, #240, .T. ) ;
#239 = CIRCLE ( 'NONE', #87, 1.899999999999999911 ) ;
#240 = CIRCLE ( 'NONE', #236, 1.899999999999996136 ) ;
#241 = CIRCLE ( 'NONE', #213, 1.899999999999996136 ) ;
#242 = CARTESIAN_POINT ( 'NONE',  ( 2.604645078776977357E-13, -9.135865121639255305E-15, 74.59999999999999432 ) ) ;
#243 = DIRECTION ( 'NONE',  ( 0.0000000000000000000, 1.000000000000000000, 0.0000000000000000000 ) ) ;
#244 = ORIENTED_EDGE ( 'NONE', *, *, #261, .F. ) ;
#245 = ADVANCED_FACE ( 'NONE', ( #43 ), #71, .T. ) ;
#246 = ORIENTED_EDGE ( 'NONE', *, *, #212, .T. ) ;
#247 = DIRECTION ( 'NONE',  ( 0.0000000000000000000, 1.000000000000000000, 0.0000000000000000000 ) ) ;
#248 = VERTEX_POINT ( 'NONE', #65 ) ;
#249 = VECTOR ( 'NONE', #178, 1000.000000000000000 ) ;
#250 = VERTEX_POINT ( 'NONE', #172 ) ;
#251 = ORIENTED_EDGE ( 'NONE', *, *, #238, .F. ) ;
#252 = ORIENTED_EDGE ( 'NONE', *, *, #182, .T. ) ;
#253 = LINE ( 'NONE', #19, #259 ) ;
#254 = DIRECTION ( 'NONE',  ( -4.054589356604725958E-31, -1.000000000000000000, -1.141265444721588934E-16 ) ) ;
#255 = VERTEX_POINT ( 'NONE', #223 ) ;
#256 = EDGE_LOOP ( 'NONE', ( #144, #300, #289, #22 ) ) ;
#257 = EDGE_LOOP ( 'NONE', ( #156, #196 ) ) ;
#258 = DIRECTION ( 'NONE',  ( -3.491481338843133355E-15, 1.224646799147353207E-16, -1.000000000000000000 ) ) ;
#259 = VECTOR ( 'NONE', #68, 1000.000000000000114 ) ;
#260 = ORIENTED_EDGE ( 'NONE', *, *, #308, .T. ) ;
#261 = EDGE_CURVE ( 'NONE', #250, #167, #218, .T. ) ;
#262 = AXIS2_PLACEMENT_3D ( 'NONE', #94, #291, #247 ) ;
#263 = CC_DESIGN_PERSON_AND_ORGANIZATION_ASSIGNMENT ( #1, #154, ( #97 ) ) ;
#264 = APPROVAL_PERSON_ORGANIZATION ( #103, #84, #6 ) ;
#265 = DIRECTION ( 'NONE',  ( 0.0000000000000000000, 1.000000000000000000, 0.0000000000000000000 ) ) ;
#266 = EDGE_CURVE ( 'NONE', #195, #295, #253, .T. ) ;
#267 = VERTEX_POINT ( 'NONE', #270 ) ;
#268 = CARTESIAN_POINT ( 'NONE',  ( 4.218680805140895295E-15, 1.899999999999990807, 1.141635176152371756 ) ) ;
#269 = EDGE_LOOP ( 'NONE', ( #147, #21 ) ) ;
#270 = CARTESIAN_POINT ( 'NONE',  ( 2.613709941013214323E-13, -1.500000000000009104, 75.00000000000000000 ) ) ;
#271 = CYLINDRICAL_SURFACE ( 'NONE', #30, 1.899999999999998135 ) ;
#272 = VECTOR ( 'NONE', #325, 1000.000000000000000 ) ;
#273 = AXIS2_PLACEMENT_3D ( 'NONE', #301, #139, #331 ) ;
#274 = EDGE_LOOP ( 'NONE', ( #67, #91, #159 ) ) ;
#275 = DIRECTION ( 'NONE',  ( -3.491481338843133355E-15, 1.224646799147353207E-16, -1.000000000000000000 ) ) ;
#276 = CARTESIAN_POINT ( 'NONE',  ( 2.326828918379955095E-16, -1.899999999999993694, -2.326828918379971365E-16 ) ) ;
#277 = PERSON_AND_ORGANIZATION_ROLE ( 'classification_officer' ) ;
#278 = DIRECTION ( 'NONE',  ( -3.491481338843133355E-15, 1.224646799147353207E-16, -1.000000000000000000 ) ) ;
#279 =( NAMED_UNIT ( * ) SI_UNIT ( $, .STERADIAN. ) SOLID_ANGLE_UNIT ( ) );
#280 = CARTESIAN_POINT ( 'NONE',  ( 1.501336975702547217E-13, -5.265981236333618470E-15, 43.00000000000000000 ) ) ;
#281 =( NAMED_UNIT ( * ) PLANE_ANGLE_UNIT ( ) SI_UNIT ( $, .RADIAN. ) );
#282 = DIRECTION ( 'NONE',  ( 0.0000000000000000000, 1.000000000000000000, 0.0000000000000000000 ) ) ;
#283 = PERSON_AND_ORGANIZATION_ROLE ( 'creator' ) ;
#284 = EDGE_CURVE ( 'NONE', #230, #167, #99, .T. ) ;
#285 = AXIS2_PLACEMENT_3D ( 'NONE', #40, #150, #191 ) ;
#286 = DIRECTION ( 'NONE',  ( -3.491481338843133355E-15, 1.224646799147353207E-16, -1.000000000000000000 ) ) ;
#287 = DIRECTION ( 'NONE',  ( -2.382254525458708792E-15, -0.7071067811865495711, -0.7071067811865455743 ) ) ;
#288 = APPROVAL_PERSON_ORGANIZATION ( #57, #317, #133 ) ;
#289 = ORIENTED_EDGE ( 'NONE', *, *, #164, .T. ) ;
#290 = PERSON ( 'UNSPECIFIED', 'UNSPECIFIED', 'UNSPECIFIED', ('UNSPECIFIED'), ('UNSPECIFIED'), ('UNSPECIFIED') ) ;
#291 = DIRECTION ( 'NONE',  ( -3.491481338843133355E-15, 1.224646799147353207E-16, -1.000000000000000000 ) ) ;
#292 = EDGE_CURVE ( 'NONE', #255, #24, #88, .T. ) ;
#293 = CARTESIAN_POINT ( 'NONE',  ( 1.501336975702547217E-13, 1.899999999999990807, 43.00000000000000000 ) ) ;
#294 = CIRCLE ( 'NONE', #201, 1.899999999999999911 ) ;
#295 = VERTEX_POINT ( 'NONE', #46 ) ;
#296 = CARTESIAN_POINT ( 'NONE',  ( 2.618611004132350143E-13, -9.184850993605148733E-15, 75.00000000000000000 ) ) ;
#297 = DIRECTION ( 'NONE',  ( 3.491481338843133355E-15, -1.224646799147353207E-16, 1.000000000000000000 ) ) ;
#298 = DIRECTION ( 'NONE',  ( 3.491481338843133355E-15, -1.224646799147353207E-16, 1.000000000000000000 ) ) ;
#299 = DIRECTION ( 'NONE',  ( -3.491481338843133355E-15, 1.224646799147353207E-16, -1.000000000000000000 ) ) ;
#300 = ORIENTED_EDGE ( 'NONE', *, *, #292, .T. ) ;
#301 = CARTESIAN_POINT ( 'NONE',  ( 0.0000000000000000000, 0.0000000000000000000, 0.0000000000000000000 ) ) ;
#302 = LINE ( 'NONE', #276, #272 ) ;
#303 = AXIS2_PLACEMENT_3D ( 'NONE', #296, #275, #15 ) ;
#304 = ORIENTED_EDGE ( 'NONE', *, *, #131, .T. ) ;
#305 = PERSON_AND_ORGANIZATION ( #290, #104 ) ;
#306 = DIRECTION ( 'NONE',  ( -4.054589356604725958E-31, -1.000000000000000000, -1.141265444721588934E-16 ) ) ;
#307 = COORDINATED_UNIVERSAL_TIME_OFFSET ( 1, 0, .AHEAD. ) ;
#308 = EDGE_CURVE ( 'NONE', #248, #70, #190, .T. ) ;
#309 = LINE ( 'NONE', #8, #185 ) ;
#310 = DIRECTION ( 'NONE',  ( 0.0000000000000000000, 0.0000000000000000000, 1.000000000000000000 ) ) ;
#311 = CARTESIAN_POINT ( 'NONE',  ( 2.618611004132350143E-13, 1.499999999999990896, 75.00000000000000000 ) ) ;
#312 = CC_DESIGN_PERSON_AND_ORGANIZATION_ASSIGNMENT ( #162, #333, ( #228 ) ) ;
#313 = DATE_TIME_ROLE ( 'classification_date' ) ;
#314 = MANIFOLD_SOLID_BREP ( 'Corps-Déplacer/Copier1[1]', #117 ) ;
#315 = APPROVAL_PERSON_ORGANIZATION ( #2, #96, #7 ) ;
#316 = MANIFOLD_SOLID_BREP ( 'Corps-Déplacer/Copier1[2]', #165 ) ;
#317 = APPROVAL ( #59, 'UNSPECIFIED' ) ;
#318 = CYLINDRICAL_SURFACE ( 'NONE', #36, 1.899999999999993694 ) ;
#319 = AXIS2_PLACEMENT_3D ( 'NONE', #93, #224, #332 ) ;
#320 = CC_DESIGN_APPROVAL ( #84, ( #82 ) ) ;
#321 = CC_DESIGN_PERSON_AND_ORGANIZATION_ASSIGNMENT ( #305, #277, ( #82 ) ) ;
#322 = EDGE_LOOP ( 'NONE', ( #189, #26, #42, #52 ) ) ;
#323 = ADVANCED_FACE ( 'NONE', ( #329 ), #92, .T. ) ;
#324 = CARTESIAN_POINT ( 'NONE',  ( 1.501336975702547217E-13, -5.265981236333618470E-15, 43.00000000000000000 ) ) ;
#325 = DIRECTION ( 'NONE',  ( -3.491481338843133355E-15, 1.224646799147353207E-16, -1.000000000000000000 ) ) ;
#326 = CARTESIAN_POINT ( 'NONE',  ( 0.0000000000000000000, 0.0000000000000000000, 0.0000000000000000000 ) ) ;
#327 = LOCAL_TIME ( 15, 37, 55.00000000000000000, #307 ) ;
#328 = DIRECTION ( 'NONE',  ( 0.0000000000000000000, 1.000000000000000000, 0.0000000000000000000 ) ) ;
#329 = FACE_OUTER_BOUND ( 'NONE', #203, .T. ) ;
#330 = FACE_OUTER_BOUND ( 'NONE', #55, .T. ) ;
#331 = DIRECTION ( 'NONE',  ( 4.275831445896958607E-31, 1.000000000000000000, 1.224646799147353207E-16 ) ) ;
#332 = DIRECTION ( 'NONE',  ( -4.275831445896958607E-31, -1.000000000000000000, -1.224646799147353207E-16 ) ) ;
#333 = PERSON_AND_ORGANIZATION_ROLE ( 'design_supplier' ) ;
#334 = LINE ( 'NONE', #100, #163 ) ;
#335 = CALENDAR_DATE ( 2021, 2, 9 ) ;
#336 = VERTEX_POINT ( 'NONE', #293 ) ;
#337 = EDGE_CURVE ( 'NONE', #70, #336, #118, .T. ) ;
ENDSEC;
END-ISO-10303-21;
