ISO-10303-21;
HEADER;
FILE_DESCRIPTION (( 'STEP AP203' ),
    '1' );
FILE_NAME ('53739.step',
    '2021-09-02T13:37:54',
    ( '' ),
    ( '' ),
    'SwSTEP 2.0',
    'SolidWorks 2019',
    '' );
FILE_SCHEMA (( 'CONFIG_CONTROL_DESIGN' ));
ENDSEC;

DATA;
#1 = FACE_OUTER_BOUND ( 'NONE', #184, .T. ) ;
#2 = APPROVAL_PERSON_ORGANIZATION ( #128, #291, #197 ) ;
#3 = VERTEX_POINT ( 'NONE', #133 ) ;
#4 = ORIENTED_EDGE ( 'NONE', *, *, #56, .T. ) ;
#5 = ADVANCED_FACE ( 'NONE', ( #1 ), #159, .T. ) ;
#6 = EDGE_LOOP ( 'NONE', ( #186, #181, #290, #227 ) ) ;
#7 = CARTESIAN_POINT ( 'NONE',  ( 7.696496602614499743E-31, 1.799999999999993827, 2.204364238465228180E-16 ) ) ;
#8 = DIRECTION ( 'NONE',  ( -3.491481338843133355E-15, 1.224646799147353207E-16, -1.000000000000000000 ) ) ;
#9 = DIRECTION ( 'NONE',  ( -3.491481338843133355E-15, 1.224646799147353207E-16, -1.000000000000000000 ) ) ;
#10 = CARTESIAN_POINT ( 'NONE',  ( 2.444036937190193601E-13, -8.572527594031472993E-15, 70.00000000000000000 ) ) ;
#11 = AXIS2_PLACEMENT_3D ( 'NONE', #218, #194, #191 ) ;
#12 = DIRECTION ( 'NONE',  ( -3.491481338843133355E-15, 1.224646799147353207E-16, -1.000000000000000000 ) ) ;
#13 = PERSON_AND_ORGANIZATION ( #42, #262 ) ;
#14 = CALENDAR_DATE ( 2021, 2, 9 ) ;
#15 = CARTESIAN_POINT ( 'NONE',  ( 1.898078731230286758E-13, -1.800000000000000933, 39.00000000000000000 ) ) ;
#16 = EDGE_CURVE ( 'NONE', #260, #113, #37, .T. ) ;
#17 = SECURITY_CLASSIFICATION_LEVEL ( 'unclassified' ) ;
#18 = AXIS2_PLACEMENT_3D ( 'NONE', #138, #12, #265 ) ;
#19 = CARTESIAN_POINT ( 'NONE',  ( 1.361677722148822135E-13, 1.799999999999991385, 39.00000000000000000 ) ) ;
#20 = ADVANCED_FACE ( 'NONE', ( #263 ), #26, .T. ) ;
#21 = CARTESIAN_POINT ( 'NONE',  ( 2.204364238465225961E-16, -1.799999999999998268, -2.204364238465241246E-16 ) ) ;
#22 = ORIENTED_EDGE ( 'NONE', *, *, #65, .F. ) ;
#23 = ORIENTED_EDGE ( 'NONE', *, *, #216, .T. ) ;
#24 = CC_DESIGN_PERSON_AND_ORGANIZATION_ASSIGNMENT ( #46, #40, ( #131 ) ) ;
#25 = EDGE_LOOP ( 'NONE', ( #284, #154, #207, #285 ) ) ;
#26 = CONICAL_SURFACE ( 'NONE', #156, 1.799999999999991607, 1.029744258676649871 ) ;
#27 = VECTOR ( 'NONE', #147, 1000.000000000000000 ) ;
#28 = ADVANCED_FACE ( 'NONE', ( #317 ), #289, .T. ) ;
#29 = DIRECTION ( 'NONE',  ( 0.0000000000000000000, 1.000000000000000000, 0.0000000000000000000 ) ) ;
#30 = ORIENTED_EDGE ( 'NONE', *, *, #101, .T. ) ;
#31 = CARTESIAN_POINT ( 'NONE',  ( 0.0000000000000000000, 0.0000000000000000000, 0.0000000000000000000 ) ) ;
#32 = AXIS2_PLACEMENT_3D ( 'NONE', #241, #100, #297 ) ;
#33 = CARTESIAN_POINT ( 'NONE',  ( 3.776208549444850326E-15, -1.799999999999991829, 1.081549114249614973 ) ) ;
#34 = DIRECTION ( 'NONE',  ( 0.0000000000000000000, 1.000000000000000000, 0.0000000000000000000 ) ) ;
#35 = EDGE_CURVE ( 'NONE', #113, #260, #278, .T. ) ;
#36 = CARTESIAN_POINT ( 'NONE',  ( 3.776208549444851115E-15, -1.324515660886446418E-16, 1.081549114249615196 ) ) ;
#37 = CIRCLE ( 'NONE', #276, 1.400000000000000133 ) ;
#38 = CIRCLE ( 'NONE', #307, 1.799999999999996270 ) ;
#39 = AXIS2_PLACEMENT_3D ( 'NONE', #235, #66, #219 ) ;
#40 = PERSON_AND_ORGANIZATION_ROLE ( 'classification_officer' ) ;
#41 = DIRECTION ( 'NONE',  ( -2.468850131082258244E-15, 0.7071067811865495711, -0.7071067811865454633 ) ) ;
#42 = PERSON ( 'UNSPECIFIED', 'UNSPECIFIED', 'UNSPECIFIED', ('UNSPECIFIED'), ('UNSPECIFIED'), ('UNSPECIFIED') ) ;
#43 = PERSON_AND_ORGANIZATION ( #42, #262 ) ;
#44 = EDGE_CURVE ( 'NONE', #229, #210, #189, .T. ) ;
#45 = LINE ( 'NONE', #251, #153 ) ;
#46 = PERSON_AND_ORGANIZATION ( #42, #262 ) ;
#47 = CARTESIAN_POINT ( 'NONE',  ( 1.361677722148822135E-13, 1.799999999999991385, 39.00000000000000000 ) ) ;
#48 = CALENDAR_DATE ( 2021, 2, 9 ) ;
#49 = CIRCLE ( 'NONE', #247, 1.799999999999991607 ) ;
#50 = LINE ( 'NONE', #248, #328 ) ;
#51 = CC_DESIGN_DATE_AND_TIME_ASSIGNMENT ( #279, #72, ( #170 ) ) ;
#52 = VERTEX_POINT ( 'NONE', #121 ) ;
#53 = CARTESIAN_POINT ( 'NONE',  ( 2.430071011834821320E-13, 1.799999999999991385, 69.60000000000000853 ) ) ;
#54 = CIRCLE ( 'NONE', #233, 1.799999999999996270 ) ;
#55 = ORIENTED_EDGE ( 'NONE', *, *, #16, .T. ) ;
#56 = EDGE_CURVE ( 'NONE', #3, #105, #110, .T. ) ;
#57 = VERTEX_POINT ( 'NONE', #118 ) ;
#58 = EDGE_LOOP ( 'NONE', ( #231, #283, #4 ) ) ;
#59 = VECTOR ( 'NONE', #327, 1000.000000000000000 ) ;
#60 = EDGE_LOOP ( 'NONE', ( #211, #337 ) ) ;
#61 = DIRECTION ( 'NONE',  ( 4.279844320860544164E-31, 1.000000000000000000, 1.204669080539455014E-16 ) ) ;
#62 = CARTESIAN_POINT ( 'NONE',  ( 1.361677722148822135E-13, -4.776122516674677878E-15, 39.00000000000000000 ) ) ;
#63 = CONICAL_SURFACE ( 'NONE', #311, 1.400000000000000133, 0.7853981633974510546 ) ;
#64 = DIRECTION ( 'NONE',  ( 3.491481338843133355E-15, -1.224646799147353207E-16, 1.000000000000000000 ) ) ;
#65 = EDGE_CURVE ( 'NONE', #210, #229, #281, .T. ) ;
#66 = DIRECTION ( 'NONE',  ( -3.491481338843133355E-15, 1.224646799147353207E-16, -1.000000000000000000 ) ) ;
#67 = PERSON_AND_ORGANIZATION_ROLE ( 'design_owner' ) ;
#68 = CYLINDRICAL_SURFACE ( 'NONE', #69, 1.799999999999993827 ) ;
#69 = AXIS2_PLACEMENT_3D ( 'NONE', #270, #99, #199 ) ;
#70 = APPROVAL_ROLE ( '' ) ;
#71 = DIRECTION ( 'NONE',  ( 4.275831445896958607E-31, 1.000000000000000000, 1.224646799147353207E-16 ) ) ;
#72 = DATE_TIME_ROLE ( 'creation_date' ) ;
#73 = PLANE ( 'NONE',  #212 ) ;
#74 = DATE_AND_TIME ( #169, #269 ) ;
#75 = FACE_OUTER_BOUND ( 'NONE', #237, .T. ) ;
#76 = LOCAL_TIME ( 15, 37, 54.00000000000000000, #122 ) ;
#77 = CARTESIAN_POINT ( 'NONE',  ( 3.776208549444851115E-15, -1.324515660886446418E-16, 1.081549114249615196 ) ) ;
#78 = ADVANCED_FACE ( 'NONE', ( #84 ), #261, .T. ) ;
#79 = ORIENTED_EDGE ( 'NONE', *, *, #16, .F. ) ;
#80 = EDGE_CURVE ( 'NONE', #177, #3, #162, .T. ) ;
#81 = ORIENTED_EDGE ( 'NONE', *, *, #296, .F. ) ;
#82 = ORIENTED_EDGE ( 'NONE', *, *, #216, .F. ) ;
#83 = CARTESIAN_POINT ( 'NONE',  ( 3.776208549444851115E-15, -1.324515660886446418E-16, 1.081549114249615196 ) ) ;
#84 = FACE_OUTER_BOUND ( 'NONE', #310, .T. ) ;
#85 = ADVANCED_FACE ( 'NONE', ( #114 ), #213, .T. ) ;
#86 = CARTESIAN_POINT ( 'NONE',  ( 1.361677722148822135E-13, -4.776122516674677878E-15, 39.00000000000000000 ) ) ;
#87 = AXIS2_PLACEMENT_3D ( 'NONE', #108, #157, #29 ) ;
#88 = MANIFOLD_SOLID_BREP ( 'Corps-Déplacer/Copier1[2]', #188 ) ;
#89 = CIRCLE ( 'NONE', #39, 1.799999999999996270 ) ;
#90 = DIRECTION ( 'NONE',  ( -4.279844320860544164E-31, -1.000000000000000000, -1.204669080539455014E-16 ) ) ;
#91 = PERSON_AND_ORGANIZATION_ROLE ( 'creator' ) ;
#92 = LINE ( 'NONE', #298, #137 ) ;
#93 = COORDINATED_UNIVERSAL_TIME_OFFSET ( 1, 0, .AHEAD. ) ;
#94 = DIRECTION ( 'NONE',  ( -2.382254525458709186E-15, -0.7071067811865493491, -0.7071067811865456854 ) ) ;
#95 = AXIS2_PLACEMENT_3D ( 'NONE', #244, #222, #71 ) ;
#96 = CARTESIAN_POINT ( 'NONE',  ( 1.898078731230286001E-13, -1.800000000000008482, 69.60000000000000853 ) ) ;
#97 = MECHANICAL_CONTEXT ( 'NONE', #205, 'mechanical' ) ;
#98 = MANIFOLD_SOLID_BREP ( 'Corps-Déplacer/Copier1[1]', #305 ) ;
#99 = DIRECTION ( 'NONE',  ( -3.491481338843133355E-15, 1.224646799147353207E-16, -1.000000000000000000 ) ) ;
#100 = DIRECTION ( 'NONE',  ( 0.0000000000000000000, 0.0000000000000000000, 1.000000000000000000 ) ) ;
#101 = EDGE_CURVE ( 'NONE', #177, #57, #38, .T. ) ;
#102 = PLANE ( 'NONE',  #95 ) ;
#103 = CC_DESIGN_APPROVAL ( #291, ( #170 ) ) ;
#104 =( NAMED_UNIT ( * ) PLANE_ANGLE_UNIT ( ) SI_UNIT ( $, .RADIAN. ) );
#105 = VERTEX_POINT ( 'NONE', #33 ) ;
#106 = EDGE_CURVE ( 'NONE', #57, #177, #89, .T. ) ;
#107 = ORIENTED_EDGE ( 'NONE', *, *, #198, .F. ) ;
#108 = CARTESIAN_POINT ( 'NONE',  ( 2.444036937190193601E-13, -8.572527594031472993E-15, 70.00000000000000000 ) ) ;
#109 = EDGE_LOOP ( 'NONE', ( #312, #206, #282, #155 ) ) ;
#110 = CIRCLE ( 'NONE', #253, 1.799999999999991607 ) ;
#111 = EDGE_LOOP ( 'NONE', ( #107, #256, #132 ) ) ;
#112 = EDGE_CURVE ( 'NONE', #228, #208, #54, .T. ) ;
#113 = VERTEX_POINT ( 'NONE', #215 ) ;
#114 = FACE_OUTER_BOUND ( 'NONE', #6, .T. ) ;
#115 = DIRECTION ( 'NONE',  ( 4.275831445896958607E-31, 1.000000000000000000, 1.224646799147353207E-16 ) ) ;
#116 = EDGE_CURVE ( 'NONE', #208, #228, #134, .T. ) ;
#117 = DIRECTION ( 'NONE',  ( 0.0000000000000000000, 1.000000000000000000, 0.0000000000000000000 ) ) ;
#118 = CARTESIAN_POINT ( 'NONE',  ( 7.019242680600988982E-14, -1.800000000000000711, 39.00000000000000000 ) ) ;
#119 = APPROVAL_PERSON_ORGANIZATION ( #223, #303, #70 ) ;
#120 = ADVANCED_FACE ( 'NONE', ( #294 ), #63, .T. ) ;
#121 = CARTESIAN_POINT ( 'NONE',  ( 0.0000000000000000000, 0.0000000000000000000, 0.0000000000000000000 ) ) ;
#122 = COORDINATED_UNIVERSAL_TIME_OFFSET ( 1, 0, .AHEAD. ) ;
#123 = DATE_AND_TIME ( #14, #143 ) ;
#124 = CARTESIAN_POINT ( 'NONE',  ( 2.444036937190193601E-13, 1.399999999999991473, 70.00000000000000000 ) ) ;
#125 = PRODUCT_DEFINITION_FORMATION_WITH_SPECIFIED_SOURCE ( 'ANY', '', #325, .NOT_KNOWN. ) ;
#126 = APPROVAL_STATUS ( 'not_yet_approved' ) ;
#127 = DIRECTION ( 'NONE',  ( -4.279844320860544164E-31, -1.000000000000000000, -1.204669080539455014E-16 ) ) ;
#128 = PERSON_AND_ORGANIZATION ( #42, #262 ) ;
#129 = EDGE_CURVE ( 'NONE', #105, #3, #49, .T. ) ;
#130 = LINE ( 'NONE', #277, #27 ) ;
#131 = SECURITY_CLASSIFICATION ( '', '', #17 ) ;
#132 = ORIENTED_EDGE ( 'NONE', *, *, #129, .T. ) ;
#133 = CARTESIAN_POINT ( 'NONE',  ( 3.996644973291374697E-15, 1.799999999999991385, 1.081549114249615418 ) ) ;
#134 = CIRCLE ( 'NONE', #226, 1.799999999999996270 ) ;
#135 = CC_DESIGN_PERSON_AND_ORGANIZATION_ASSIGNMENT ( #43, #271, ( #125 ) ) ;
#136 = CARTESIAN_POINT ( 'NONE',  ( 3.776208549444851115E-15, -1.324515660886446418E-16, 1.081549114249615196 ) ) ;
#137 = VECTOR ( 'NONE', #333, 1000.000000000000000 ) ;
#138 = CARTESIAN_POINT ( 'NONE',  ( 2.430071011834821320E-13, -8.523541722065579564E-15, 69.60000000000000853 ) ) ;
#139 = EDGE_CURVE ( 'NONE', #210, #208, #92, .T. ) ;
#140 = CARTESIAN_POINT ( 'NONE',  ( 0.0000000000000000000, 0.0000000000000000000, 0.0000000000000000000 ) ) ;
#141 = CARTESIAN_POINT ( 'NONE',  ( 1.361677722148822135E-13, -4.776122516674677878E-15, 39.00000000000000000 ) ) ;
#142 = DIRECTION ( 'NONE',  ( -3.491481338843133355E-15, 1.224646799147353207E-16, -1.000000000000000000 ) ) ;
#143 = LOCAL_TIME ( 15, 37, 54.00000000000000000, #330 ) ;
#144 = DIRECTION ( 'NONE',  ( 3.491481338843133355E-15, -1.224646799147353207E-16, 1.000000000000000000 ) ) ;
#145 = FACE_OUTER_BOUND ( 'NONE', #58, .T. ) ;
#146 = DATE_AND_TIME ( #48, #286 ) ;
#147 = DIRECTION ( 'NONE',  ( -3.491481338843133355E-15, 1.224646799147353207E-16, -1.000000000000000000 ) ) ;
#148 = CC_DESIGN_PERSON_AND_ORGANIZATION_ASSIGNMENT ( #13, #91, ( #170 ) ) ;
#149 = CC_DESIGN_SECURITY_CLASSIFICATION ( #131, ( #125 ) ) ;
#150 = PERSON_AND_ORGANIZATION_ROLE ( 'creator' ) ;
#151 = ORIENTED_EDGE ( 'NONE', *, *, #318, .T. ) ;
#152 = PLANE ( 'NONE',  #321 ) ;
#153 = VECTOR ( 'NONE', #41, 1000.000000000000000 ) ;
#154 = ORIENTED_EDGE ( 'NONE', *, *, #106, .T. ) ;
#155 = ORIENTED_EDGE ( 'NONE', *, *, #112, .F. ) ;
#156 = AXIS2_PLACEMENT_3D ( 'NONE', #136, #64, #90 ) ;
#157 = DIRECTION ( 'NONE',  ( -3.491481338843133355E-15, 1.224646799147353207E-16, -1.000000000000000000 ) ) ;
#158 = CARTESIAN_POINT ( 'NONE',  ( 2.430071011834821320E-13, -8.523541722065579564E-15, 69.60000000000000853 ) ) ;
#159 = CONICAL_SURFACE ( 'NONE', #87, 1.400000000000000133, 0.7853981633974510546 ) ;
#160 = AXIS2_PLACEMENT_3D ( 'NONE', #240, #232, #234 ) ;
#161 = DIRECTION ( 'NONE',  ( -3.491481338843133355E-15, 1.224646799147353207E-16, -1.000000000000000000 ) ) ;
#162 = LINE ( 'NONE', #7, #316 ) ;
#163 = DIRECTION ( 'NONE',  ( -3.491481338843133355E-15, 1.224646799147353207E-16, -1.000000000000000000 ) ) ;
#164 = APPROVAL_STATUS ( 'not_yet_approved' ) ;
#165 = FACE_OUTER_BOUND ( 'NONE', #60, .T. ) ;
#166 = AXIS2_PLACEMENT_3D ( 'NONE', #158, #214, #259 ) ;
#167 = PRODUCT_DEFINITION_SHAPE ( 'NONE', 'NONE',  #170 ) ;
#168 = FACE_OUTER_BOUND ( 'NONE', #25, .T. ) ;
#169 = CALENDAR_DATE ( 2021, 2, 9 ) ;
#170 = PRODUCT_DEFINITION ( 'UNKNOWN', '', #125, #288 ) ;
#171 = DIRECTION ( 'NONE',  ( 1.903218546456021928E-15, 0.8571673007021098911, 0.5150380749100583744 ) ) ;
#172 = APPROVAL_ROLE ( '' ) ;
#173 = CARTESIAN_POINT ( 'NONE',  ( 1.361677722148822135E-13, 1.349783804395661994E-32, 39.00000000000000000 ) ) ;
#174 = AXIS2_PLACEMENT_3D ( 'NONE', #77, #144, #127 ) ;
#175 = APPROVAL_DATE_TIME ( #267, #291 ) ;
#176 = ADVANCED_BREP_SHAPE_REPRESENTATION ( '53739', ( #98, #88, #32 ), #179 ) ;
#177 = VERTEX_POINT ( 'NONE', #47 ) ;
#178 = EDGE_LOOP ( 'NONE', ( #82, #250, #314, #280 ) ) ;
#179 =( GEOMETRIC_REPRESENTATION_CONTEXT ( 3 ) GLOBAL_UNCERTAINTY_ASSIGNED_CONTEXT ( ( #180 ) ) GLOBAL_UNIT_ASSIGNED_CONTEXT ( ( #225, #104, #242 ) ) REPRESENTATION_CONTEXT ( 'NONE', 'WORKASPACE' ) );
#180 = UNCERTAINTY_MEASURE_WITH_UNIT (LENGTH_MEASURE( 1.000000000000000082E-05 ), #225, 'distance_accuracy_value', 'NONE');
#181 = ORIENTED_EDGE ( 'NONE', *, *, #313, .T. ) ;
#182 = VECTOR ( 'NONE', #274, 1000.000000000000000 ) ;
#183 = AXIS2_PLACEMENT_3D ( 'NONE', #31, #292, #295 ) ;
#184 = EDGE_LOOP ( 'NONE', ( #55, #23, #22, #81 ) ) ;
#185 = DIRECTION ( 'NONE',  ( -3.491481338843133355E-15, 1.224646799147353207E-16, -1.000000000000000000 ) ) ;
#186 = ORIENTED_EDGE ( 'NONE', *, *, #65, .T. ) ;
#187 = CARTESIAN_POINT ( 'NONE',  ( 2.444036937190193601E-13, -8.572527594031472993E-15, 70.00000000000000000 ) ) ;
#188 = CLOSED_SHELL ( 'NONE', ( #78, #308, #20, #264, #236 ) ) ;
#189 = CIRCLE ( 'NONE', #18, 1.800000000000000044 ) ;
#190 = DIRECTION ( 'NONE',  ( 0.0000000000000000000, 1.000000000000000000, 0.0000000000000000000 ) ) ;
#191 = DIRECTION ( 'NONE',  ( 4.275831445896958607E-31, 1.000000000000000000, 1.224646799147353207E-16 ) ) ;
#192 = APPROVAL ( #243, 'UNSPECIFIED' ) ;
#193 = PERSON_AND_ORGANIZATION ( #42, #262 ) ;
#194 = DIRECTION ( 'NONE',  ( -3.491481338843133355E-15, 1.224646799147353207E-16, -1.000000000000000000 ) ) ;
#195 = APPLICATION_PROTOCOL_DEFINITION ( 'international standard', 'config_control_design', 1994, #205 ) ;
#196 = CARTESIAN_POINT ( 'NONE',  ( 3.776208549444850326E-15, -1.799999999999991829, 1.081549114249614973 ) ) ;
#197 = APPROVAL_ROLE ( '' ) ;
#198 = EDGE_CURVE ( 'NONE', #52, #3, #329, .T. ) ;
#199 = DIRECTION ( 'NONE',  ( 4.275831445896958607E-31, 1.000000000000000000, 1.224646799147353207E-16 ) ) ;
#200 = APPLICATION_CONTEXT ( 'configuration controlled 3d designs of mechanical parts and assemblies' ) ;
#201 = SHAPE_DEFINITION_REPRESENTATION ( #167, #176 ) ;
#202 = CC_DESIGN_PERSON_AND_ORGANIZATION_ASSIGNMENT ( #193, #150, ( #125 ) ) ;
#203 = APPROVAL_PERSON_ORGANIZATION ( #245, #192, #172 ) ;
#204 = DIRECTION ( 'NONE',  ( 3.491481338843133355E-15, -1.224646799147353207E-16, 1.000000000000000000 ) ) ;
#205 = APPLICATION_CONTEXT ( 'configuration controlled 3d designs of mechanical parts and assemblies' ) ;
#206 = ORIENTED_EDGE ( 'NONE', *, *, #44, .T. ) ;
#207 = ORIENTED_EDGE ( 'NONE', *, *, #80, .T. ) ;
#208 = VERTEX_POINT ( 'NONE', #19 ) ;
#209 = ADVANCED_FACE ( 'NONE', ( #334 ), #102, .F. ) ;
#210 = VERTEX_POINT ( 'NONE', #53 ) ;
#211 = ORIENTED_EDGE ( 'NONE', *, *, #116, .T. ) ;
#212 = AXIS2_PLACEMENT_3D ( 'NONE', #173, #272, #221 ) ;
#213 = CYLINDRICAL_SURFACE ( 'NONE', #183, 1.799999999999998268 ) ;
#214 = DIRECTION ( 'NONE',  ( -3.491481338843133355E-15, 1.224646799147353207E-16, -1.000000000000000000 ) ) ;
#215 = CARTESIAN_POINT ( 'NONE',  ( 2.439013409391142819E-13, -1.400000000000008793, 70.00000000000000000 ) ) ;
#216 = EDGE_CURVE ( 'NONE', #113, #229, #50, .T. ) ;
#217 = LOCAL_TIME ( 15, 37, 54.00000000000000000, #220 ) ;
#218 = CARTESIAN_POINT ( 'NONE',  ( 0.0000000000000000000, 0.0000000000000000000, 0.0000000000000000000 ) ) ;
#219 = DIRECTION ( 'NONE',  ( 0.0000000000000000000, 1.000000000000000000, 0.0000000000000000000 ) ) ;
#220 = COORDINATED_UNIVERSAL_TIME_OFFSET ( 1, 0, .AHEAD. ) ;
#221 = DIRECTION ( 'NONE',  ( -4.275831445896958607E-31, -1.000000000000000000, -1.224646799147353207E-16 ) ) ;
#222 = DIRECTION ( 'NONE',  ( -3.491481338843133355E-15, 1.224646799147353207E-16, -1.000000000000000000 ) ) ;
#223 = PERSON_AND_ORGANIZATION ( #42, #262 ) ;
#224 = DATE_TIME_ROLE ( 'classification_date' ) ;
#225 =( LENGTH_UNIT ( ) NAMED_UNIT ( * ) SI_UNIT ( .MILLI., .METRE. ) );
#226 = AXIS2_PLACEMENT_3D ( 'NONE', #86, #320, #190 ) ;
#227 = ORIENTED_EDGE ( 'NONE', *, *, #139, .F. ) ;
#228 = VERTEX_POINT ( 'NONE', #15 ) ;
#229 = VERTEX_POINT ( 'NONE', #96 ) ;
#230 = AXIS2_PLACEMENT_3D ( 'NONE', #140, #8, #115 ) ;
#231 = ORIENTED_EDGE ( 'NONE', *, *, #254, .F. ) ;
#232 = DIRECTION ( 'NONE',  ( -3.491481338843133355E-15, 1.224646799147353207E-16, -1.000000000000000000 ) ) ;
#233 = AXIS2_PLACEMENT_3D ( 'NONE', #141, #9, #117 ) ;
#234 = DIRECTION ( 'NONE',  ( 0.0000000000000000000, 1.000000000000000000, 0.0000000000000000000 ) ) ;
#235 = CARTESIAN_POINT ( 'NONE',  ( 1.361677722148822135E-13, -4.776122516674677878E-15, 39.00000000000000000 ) ) ;
#236 = ADVANCED_FACE ( 'NONE', ( #75 ), #152, .T. ) ;
#237 = EDGE_LOOP ( 'NONE', ( #287, #255 ) ) ;
#238 = DIRECTION ( 'NONE',  ( 0.0000000000000000000, 1.000000000000000000, 0.0000000000000000000 ) ) ;
#239 = CONICAL_SURFACE ( 'NONE', #174, 1.799999999999991607, 1.029744258676649871 ) ;
#240 = CARTESIAN_POINT ( 'NONE',  ( 2.444036937190193601E-13, -8.572527594031472993E-15, 70.00000000000000000 ) ) ;
#241 = CARTESIAN_POINT ( 'NONE',  ( 0.0000000000000000000, 0.0000000000000000000, 0.0000000000000000000 ) ) ;
#242 =( NAMED_UNIT ( * ) SI_UNIT ( $, .STERADIAN. ) SOLID_ANGLE_UNIT ( ) );
#243 = APPROVAL_STATUS ( 'not_yet_approved' ) ;
#244 = CARTESIAN_POINT ( 'NONE',  ( 2.444036937190193601E-13, 1.049831847863287462E-32, 70.00000000000000000 ) ) ;
#245 = PERSON_AND_ORGANIZATION ( #42, #262 ) ;
#246 = DIRECTION ( 'NONE',  ( -4.275831445896958607E-31, -1.000000000000000000, -1.224646799147353207E-16 ) ) ;
#247 = AXIS2_PLACEMENT_3D ( 'NONE', #36, #142, #324 ) ;
#248 = CARTESIAN_POINT ( 'NONE',  ( 2.445751442709000045E-13, -1.400000000000008793, 70.00000000000000000 ) ) ;
#249 = CC_DESIGN_PERSON_AND_ORGANIZATION_ASSIGNMENT ( #304, #67, ( #325 ) ) ;
#250 = ORIENTED_EDGE ( 'NONE', *, *, #35, .T. ) ;
#251 = CARTESIAN_POINT ( 'NONE',  ( 2.444036937190193601E-13, 1.399999999999991473, 70.00000000000000000 ) ) ;
#252 = EDGE_LOOP ( 'NONE', ( #79, #336 ) ) ;
#253 = AXIS2_PLACEMENT_3D ( 'NONE', #83, #185, #61 ) ;
#254 = EDGE_CURVE ( 'NONE', #52, #105, #331, .T. ) ;
#255 = ORIENTED_EDGE ( 'NONE', *, *, #106, .F. ) ;
#256 = ORIENTED_EDGE ( 'NONE', *, *, #254, .T. ) ;
#257 = CC_DESIGN_APPROVAL ( #192, ( #125 ) ) ;
#258 = PRODUCT_RELATED_PRODUCT_CATEGORY ( 'detail', '', ( #325 ) ) ;
#259 = DIRECTION ( 'NONE',  ( 0.0000000000000000000, 1.000000000000000000, 0.0000000000000000000 ) ) ;
#260 = VERTEX_POINT ( 'NONE', #124 ) ;
#261 = CYLINDRICAL_SURFACE ( 'NONE', #230, 1.799999999999993827 ) ;
#262 = ORGANIZATION ( 'UNSPECIFIED', 'UNSPECIFIED', '' ) ;
#263 = FACE_OUTER_BOUND ( 'NONE', #111, .T. ) ;
#264 = ADVANCED_FACE ( 'NONE', ( #168 ), #68, .T. ) ;
#265 = DIRECTION ( 'NONE',  ( 0.0000000000000000000, 1.000000000000000000, 0.0000000000000000000 ) ) ;
#266 = DIRECTION ( 'NONE',  ( 0.0000000000000000000, 1.000000000000000000, 0.0000000000000000000 ) ) ;
#267 = DATE_AND_TIME ( #301, #217 ) ;
#268 = ADVANCED_FACE ( 'NONE', ( #165 ), #73, .F. ) ;
#269 = LOCAL_TIME ( 15, 37, 54.00000000000000000, #299 ) ;
#270 = CARTESIAN_POINT ( 'NONE',  ( 0.0000000000000000000, 0.0000000000000000000, 0.0000000000000000000 ) ) ;
#271 = PERSON_AND_ORGANIZATION_ROLE ( 'design_supplier' ) ;
#272 = DIRECTION ( 'NONE',  ( 3.491481338843133355E-15, -1.224646799147353207E-16, 1.000000000000000000 ) ) ;
#273 = APPLICATION_PROTOCOL_DEFINITION ( 'international standard', 'config_control_design', 1994, #200 ) ;
#274 = DIRECTION ( 'NONE',  ( -3.491481338843133355E-15, 1.224646799147353207E-16, -1.000000000000000000 ) ) ;
#275 = APPROVAL_DATE_TIME ( #74, #192 ) ;
#276 = AXIS2_PLACEMENT_3D ( 'NONE', #187, #319, #238 ) ;
#277 = CARTESIAN_POINT ( 'NONE',  ( 2.204364238465220538E-16, -1.799999999999993827, -2.204364238465236069E-16 ) ) ;
#278 = CIRCLE ( 'NONE', #160, 1.400000000000000133 ) ;
#279 = DATE_AND_TIME ( #326, #76 ) ;
#280 = ORIENTED_EDGE ( 'NONE', *, *, #44, .F. ) ;
#281 = CIRCLE ( 'NONE', #166, 1.800000000000000044 ) ;
#282 = ORIENTED_EDGE ( 'NONE', *, *, #139, .T. ) ;
#283 = ORIENTED_EDGE ( 'NONE', *, *, #198, .T. ) ;
#284 = ORIENTED_EDGE ( 'NONE', *, *, #318, .F. ) ;
#285 = ORIENTED_EDGE ( 'NONE', *, *, #129, .F. ) ;
#286 = LOCAL_TIME ( 15, 37, 54.00000000000000000, #93 ) ;
#287 = ORIENTED_EDGE ( 'NONE', *, *, #101, .F. ) ;
#288 = DESIGN_CONTEXT ( 'detailed design', #200, 'design' ) ;
#289 = CYLINDRICAL_SURFACE ( 'NONE', #11, 1.799999999999998268 ) ;
#290 = ORIENTED_EDGE ( 'NONE', *, *, #116, .F. ) ;
#291 = APPROVAL ( #164, 'UNSPECIFIED' ) ;
#292 = DIRECTION ( 'NONE',  ( -3.491481338843133355E-15, 1.224646799147353207E-16, -1.000000000000000000 ) ) ;
#293 = CC_DESIGN_APPROVAL ( #303, ( #131 ) ) ;
#294 = FACE_OUTER_BOUND ( 'NONE', #178, .T. ) ;
#295 = DIRECTION ( 'NONE',  ( 4.275831445896958607E-31, 1.000000000000000000, 1.224646799147353207E-16 ) ) ;
#296 = EDGE_CURVE ( 'NONE', #260, #210, #45, .T. ) ;
#297 = DIRECTION ( 'NONE',  ( 1.000000000000000000, 0.0000000000000000000, 0.0000000000000000000 ) ) ;
#298 = CARTESIAN_POINT ( 'NONE',  ( 7.696496602614518135E-31, 1.799999999999998268, 2.204364238465233604E-16 ) ) ;
#299 = COORDINATED_UNIVERSAL_TIME_OFFSET ( 1, 0, .AHEAD. ) ;
#300 = CARTESIAN_POINT ( 'NONE',  ( 3.996644973291374697E-15, 1.799999999999991385, 1.081549114249615418 ) ) ;
#301 = CALENDAR_DATE ( 2021, 2, 9 ) ;
#302 = LINE ( 'NONE', #21, #182 ) ;
#303 = APPROVAL ( #126, 'UNSPECIFIED' ) ;
#304 = PERSON_AND_ORGANIZATION ( #42, #262 ) ;
#305 = CLOSED_SHELL ( 'NONE', ( #5, #85, #268, #28, #120, #209 ) ) ;
#306 = CARTESIAN_POINT ( 'NONE',  ( 1.361677722148822135E-13, 1.349783804395661994E-32, 39.00000000000000000 ) ) ;
#307 = AXIS2_PLACEMENT_3D ( 'NONE', #62, #161, #34 ) ;
#308 = ADVANCED_FACE ( 'NONE', ( #145 ), #239, .T. ) ;
#309 = ORIENTED_EDGE ( 'NONE', *, *, #80, .F. ) ;
#310 = EDGE_LOOP ( 'NONE', ( #30, #151, #315, #309 ) ) ;
#311 = AXIS2_PLACEMENT_3D ( 'NONE', #10, #323, #266 ) ;
#312 = ORIENTED_EDGE ( 'NONE', *, *, #313, .F. ) ;
#313 = EDGE_CURVE ( 'NONE', #229, #228, #302, .T. ) ;
#314 = ORIENTED_EDGE ( 'NONE', *, *, #296, .T. ) ;
#315 = ORIENTED_EDGE ( 'NONE', *, *, #56, .F. ) ;
#316 = VECTOR ( 'NONE', #163, 1000.000000000000000 ) ;
#317 = FACE_OUTER_BOUND ( 'NONE', #109, .T. ) ;
#318 = EDGE_CURVE ( 'NONE', #57, #105, #130, .T. ) ;
#319 = DIRECTION ( 'NONE',  ( -3.491481338843133355E-15, 1.224646799147353207E-16, -1.000000000000000000 ) ) ;
#320 = DIRECTION ( 'NONE',  ( -3.491481338843133355E-15, 1.224646799147353207E-16, -1.000000000000000000 ) ) ;
#321 = AXIS2_PLACEMENT_3D ( 'NONE', #306, #204, #246 ) ;
#322 = CC_DESIGN_DATE_AND_TIME_ASSIGNMENT ( #146, #224, ( #131 ) ) ;
#323 = DIRECTION ( 'NONE',  ( -3.491481338843133355E-15, 1.224646799147353207E-16, -1.000000000000000000 ) ) ;
#324 = DIRECTION ( 'NONE',  ( 4.279844320860544164E-31, 1.000000000000000000, 1.204669080539455014E-16 ) ) ;
#325 = PRODUCT ( '53739', '53739', '', ( #97 ) ) ;
#326 = CALENDAR_DATE ( 2021, 2, 9 ) ;
#327 = DIRECTION ( 'NONE',  ( 1.798245827342159528E-15, -0.8571673007021100021, 0.5150380749100580413 ) ) ;
#328 = VECTOR ( 'NONE', #94, 1000.000000000000000 ) ;
#329 = LINE ( 'NONE', #300, #335 ) ;
#330 = COORDINATED_UNIVERSAL_TIME_OFFSET ( 1, 0, .AHEAD. ) ;
#331 = LINE ( 'NONE', #196, #59 ) ;
#332 = APPROVAL_DATE_TIME ( #123, #303 ) ;
#333 = DIRECTION ( 'NONE',  ( -3.491481338843133355E-15, 1.224646799147353207E-16, -1.000000000000000000 ) ) ;
#334 = FACE_OUTER_BOUND ( 'NONE', #252, .T. ) ;
#335 = VECTOR ( 'NONE', #171, 1000.000000000000114 ) ;
#336 = ORIENTED_EDGE ( 'NONE', *, *, #35, .F. ) ;
#337 = ORIENTED_EDGE ( 'NONE', *, *, #112, .T. ) ;
ENDSEC;
END-ISO-10303-21;
