ISO-10303-21;
HEADER;
FILE_DESCRIPTION (( 'STEP AP203' ),
    '1' );
FILE_NAME ('53716.STEP',
    '2021-10-04T11:35:00',
    ( '' ),
    ( '' ),
    'SwSTEP 2.0',
    'SolidWorks 2019',
    '' );
FILE_SCHEMA (( 'CONFIG_CONTROL_DESIGN' ));
ENDSEC;

DATA;
#1 = CARTESIAN_POINT ( 'NONE',  ( 1.152188841818234133E-13, 1.499999999999993117, 33.00000000000000000 ) ) ;
#2 = APPROVAL_STATUS ( 'not_yet_approved' ) ;
#3 = ADVANCED_FACE ( 'NONE', ( #53 ), #177, .F. ) ;
#4 =( NAMED_UNIT ( * ) PLANE_ANGLE_UNIT ( ) SI_UNIT ( $, .RADIAN. ) );
#5 = MECHANICAL_CONTEXT ( 'NONE', #124, 'mechanical' ) ;
#6 = CYLINDRICAL_SURFACE ( 'NONE', #80, 1.499999999999998668 ) ;
#7 = ADVANCED_FACE ( 'NONE', ( #113 ), #101, .F. ) ;
#8 = ORIENTED_EDGE ( 'NONE', *, *, #71, .F. ) ;
#9 = ORIENTED_EDGE ( 'NONE', *, *, #74, .F. ) ;
#10 = EDGE_LOOP ( 'NONE', ( #68 ) ) ;
#11 = UNCERTAINTY_MEASURE_WITH_UNIT (LENGTH_MEASURE( 1.000000000000000082E-05 ), #65, 'distance_accuracy_value', 'NONE');
#12 = CALENDAR_DATE ( 2021, 4, 10 ) ;
#13 = DATE_TIME_ROLE ( 'creation_date' ) ;
#14 = EDGE_CURVE ( 'NONE', #63, #63, #34, .T. ) ;
#15 = AXIS2_PLACEMENT_3D ( 'NONE', #89, #139, #150 ) ;
#16 = DIRECTION ( 'NONE',  ( -5.135813185032651421E-31, -1.000000000000000000, -1.445602896647345573E-16 ) ) ;
#17 = DIRECTION ( 'NONE',  ( -3.491481338843133355E-15, 1.224646799147353454E-16, -1.000000000000000000 ) ) ;
#18 = DATE_TIME_ROLE ( 'classification_date' ) ;
#19 = FACE_OUTER_BOUND ( 'NONE', #85, .T. ) ;
#20 = DATE_AND_TIME ( #55, #35 ) ;
#21 = CC_DESIGN_PERSON_AND_ORGANIZATION_ASSIGNMENT ( #141, #36, ( #201 ) ) ;
#22 = AXIS2_PLACEMENT_3D ( 'NONE', #98, #190, #84 ) ;
#23 = EDGE_LOOP ( 'NONE', ( #179 ) ) ;
#24 = ORIENTED_EDGE ( 'NONE', *, *, #57, .F. ) ;
#25 = CC_DESIGN_PERSON_AND_ORGANIZATION_ASSIGNMENT ( #121, #135, ( #178 ) ) ;
#26 = PERSON ( 'UNSPECIFIED', 'UNSPECIFIED', 'UNSPECIFIED', ('UNSPECIFIED'), ('UNSPECIFIED'), ('UNSPECIFIED') ) ;
#27 = AXIS2_PLACEMENT_3D ( 'NONE', #58, #185, #137 ) ;
#28 = DIRECTION ( 'NONE',  ( 3.491481338843133355E-15, -1.224646799147353454E-16, 1.000000000000000000 ) ) ;
#29 = DIRECTION ( 'NONE',  ( 0.0000000000000000000, 1.000000000000000000, 0.0000000000000000000 ) ) ;
#30 = ADVANCED_FACE ( 'NONE', ( #162, #176 ), #6, .T. ) ;
#31 = PERSON_AND_ORGANIZATION_ROLE ( 'design_supplier' ) ;
#32 = VERTEX_POINT ( 'NONE', #94 ) ;
#33 = APPLICATION_PROTOCOL_DEFINITION ( 'international standard', 'config_control_design', 1994, #124 ) ;
#34 = CIRCLE ( 'NONE', #22, 1.499999999999997113 ) ;
#35 = LOCAL_TIME ( 13, 34, 59.00000000000000000, #47 ) ;
#36 = PERSON_AND_ORGANIZATION_ROLE ( 'design_owner' ) ;
#37 = PRODUCT_RELATED_PRODUCT_CATEGORY ( 'detail', '', ( #201 ) ) ;
#38 = AXIS2_PLACEMENT_3D ( 'NONE', #186, #17, #41 ) ;
#39 = SHAPE_DEFINITION_REPRESENTATION ( #86, #166 ) ;
#40 = LOCAL_TIME ( 13, 34, 59.00000000000000000, #125 ) ;
#41 = DIRECTION ( 'NONE',  ( 0.0000000000000000000, 1.000000000000000000, 0.0000000000000000000 ) ) ;
#42 = CARTESIAN_POINT ( 'NONE',  ( 2.129803616694311221E-13, -7.470345474798856659E-15, 61.00000000000000000 ) ) ;
#43 = COORDINATED_UNIVERSAL_TIME_OFFSET ( 1, 0, .AHEAD. ) ;
#44 = DIRECTION ( 'NONE',  ( -3.491481338843133355E-15, 1.224646799147353454E-16, -1.000000000000000000 ) ) ;
#45 = DIRECTION ( 'NONE',  ( 1.000000000000000000, 0.0000000000000000000, 0.0000000000000000000 ) ) ;
#46 = MANIFOLD_SOLID_BREP ( 'Corps-Déplacer/Copier1[2]', #196 ) ;
#47 = COORDINATED_UNIVERSAL_TIME_OFFSET ( 1, 0, .AHEAD. ) ;
#48 = AXIS2_PLACEMENT_3D ( 'NONE', #131, #114, #165 ) ;
#49 = CC_DESIGN_SECURITY_CLASSIFICATION ( #92, ( #178 ) ) ;
#50 = ORIENTED_EDGE ( 'NONE', *, *, #71, .T. ) ;
#51 = ORIENTED_EDGE ( 'NONE', *, *, #74, .T. ) ;
#52 = EDGE_LOOP ( 'NONE', ( #163 ) ) ;
#53 = FACE_OUTER_BOUND ( 'NONE', #10, .T. ) ;
#54 = CIRCLE ( 'NONE', #169, 1.200000000000000622 ) ;
#55 = CALENDAR_DATE ( 2021, 4, 10 ) ;
#56 = APPROVAL_DATE_TIME ( #96, #153 ) ;
#57 = EDGE_CURVE ( 'NONE', #32, #32, #180, .T. ) ;
#58 = CARTESIAN_POINT ( 'NONE',  ( 2.119329172677781505E-13, -7.433606070824434221E-15, 60.69999999999998863 ) ) ;
#59 =( GEOMETRIC_REPRESENTATION_CONTEXT ( 3 ) GLOBAL_UNCERTAINTY_ASSIGNED_CONTEXT ( ( #11 ) ) GLOBAL_UNIT_ASSIGNED_CONTEXT ( ( #65, #4, #175 ) ) REPRESENTATION_CONTEXT ( 'NONE', 'WORKASPACE' ) );
#60 = PERSON_AND_ORGANIZATION ( #26, #103 ) ;
#61 = DIRECTION ( 'NONE',  ( -4.275831445896959482E-31, -1.000000000000000000, -1.224646799147353454E-16 ) ) ;
#62 = VERTEX_POINT ( 'NONE', #119 ) ;
#63 = VERTEX_POINT ( 'NONE', #1 ) ;
#64 = APPROVAL_ROLE ( '' ) ;
#65 =( LENGTH_UNIT ( ) NAMED_UNIT ( * ) SI_UNIT ( .MILLI., .METRE. ) );
#66 = APPROVAL ( #117, 'UNSPECIFIED' ) ;
#67 = PERSON_AND_ORGANIZATION_ROLE ( 'creator' ) ;
#68 = ORIENTED_EDGE ( 'NONE', *, *, #14, .T. ) ;
#69 = APPROVAL_PERSON_ORGANIZATION ( #155, #153, #199 ) ;
#70 = CARTESIAN_POINT ( 'NONE',  ( 0.0000000000000000000, 0.0000000000000000000, 0.0000000000000000000 ) ) ;
#71 = EDGE_CURVE ( 'NONE', #90, #90, #164, .T. ) ;
#72 = EDGE_LOOP ( 'NONE', ( #161 ) ) ;
#73 = CC_DESIGN_PERSON_AND_ORGANIZATION_ASSIGNMENT ( #174, #160, ( #92 ) ) ;
#74 = EDGE_CURVE ( 'NONE', #138, #138, #95, .T. ) ;
#75 = APPROVAL_DATE_TIME ( #97, #66 ) ;
#76 = PLANE ( 'NONE',  #145 ) ;
#77 = APPROVAL_PERSON_ORGANIZATION ( #81, #122, #64 ) ;
#78 = CC_DESIGN_DATE_AND_TIME_ASSIGNMENT ( #20, #18, ( #92 ) ) ;
#79 = FACE_BOUND ( 'NONE', #52, .T. ) ;
#80 = AXIS2_PLACEMENT_3D ( 'NONE', #70, #128, #152 ) ;
#81 = PERSON_AND_ORGANIZATION ( #26, #103 ) ;
#82 = COORDINATED_UNIVERSAL_TIME_OFFSET ( 1, 0, .AHEAD. ) ;
#83 = CARTESIAN_POINT ( 'NONE',  ( 2.129803616694311221E-13, 8.998558695971043013E-33, 61.00000000000000000 ) ) ;
#84 = DIRECTION ( 'NONE',  ( 0.0000000000000000000, 1.000000000000000000, 0.0000000000000000000 ) ) ;
#85 = EDGE_LOOP ( 'NONE', ( #24 ) ) ;
#86 = PRODUCT_DEFINITION_SHAPE ( 'NONE', 'NONE',  #102 ) ;
#87 = LOCAL_TIME ( 13, 34, 59.00000000000000000, #82 ) ;
#88 = ADVANCED_FACE ( 'NONE', ( #168 ), #91, .T. ) ;
#89 = CARTESIAN_POINT ( 'NONE',  ( 2.129803616694311221E-13, -7.470345474798856659E-15, 61.00000000000000000 ) ) ;
#90 = VERTEX_POINT ( 'NONE', #157 ) ;
#91 = CONICAL_SURFACE ( 'NONE', #133, 1.499999999999993339, 1.029744258676649871 ) ;
#92 = SECURITY_CLASSIFICATION ( '', '', #172 ) ;
#93 = DIRECTION ( 'NONE',  ( 4.275831445896959482E-31, 1.000000000000000000, 1.224646799147353207E-16 ) ) ;
#94 = CARTESIAN_POINT ( 'NONE',  ( 2.119329172677781505E-13, 1.499999999999993117, 60.69999999999998863 ) ) ;
#95 = CIRCLE ( 'NONE', #38, 1.499999999999997113 ) ;
#96 = DATE_AND_TIME ( #159, #158 ) ;
#97 = DATE_AND_TIME ( #12, #87 ) ;
#98 = CARTESIAN_POINT ( 'NONE',  ( 1.152188841818234133E-13, -4.041334437186266989E-15, 33.00000000000000000 ) ) ;
#99 = AXIS2_PLACEMENT_3D ( 'NONE', #154, #44, #93 ) ;
#100 = ORIENTED_EDGE ( 'NONE', *, *, #106, .F. ) ;
#101 = PLANE ( 'NONE',  #148 ) ;
#102 = PRODUCT_DEFINITION ( 'UNKNOWN', '', #178, #195 ) ;
#103 = ORGANIZATION ( 'UNSPECIFIED', 'UNSPECIFIED', '' ) ;
#104 = APPROVAL_DATE_TIME ( #183, #122 ) ;
#105 = DIRECTION ( 'NONE',  ( -3.491481338843133355E-15, 1.224646799147353454E-16, -1.000000000000000000 ) ) ;
#106 = EDGE_CURVE ( 'NONE', #62, #62, #54, .T. ) ;
#107 = CYLINDRICAL_SURFACE ( 'NONE', #99, 1.499999999999995337 ) ;
#108 = FACE_OUTER_BOUND ( 'NONE', #144, .T. ) ;
#109 = PERSON_AND_ORGANIZATION ( #26, #103 ) ;
#110 = DIRECTION ( 'NONE',  ( 5.135813185032651421E-31, 1.000000000000000000, 1.445602896647345573E-16 ) ) ;
#111 = DIRECTION ( 'NONE',  ( 0.0000000000000000000, 0.0000000000000000000, 1.000000000000000000 ) ) ;
#112 = EDGE_LOOP ( 'NONE', ( #50 ) ) ;
#113 = FACE_OUTER_BOUND ( 'NONE', #129, .T. ) ;
#114 = DIRECTION ( 'NONE',  ( 3.491481338843133355E-15, -1.224646799147353454E-16, 1.000000000000000000 ) ) ;
#115 = CC_DESIGN_PERSON_AND_ORGANIZATION_ASSIGNMENT ( #197, #67, ( #102 ) ) ;
#116 = CALENDAR_DATE ( 2021, 4, 10 ) ;
#117 = APPROVAL_STATUS ( 'not_yet_approved' ) ;
#118 = DIRECTION ( 'NONE',  ( -3.491481338843133355E-15, 1.224646799147353454E-16, -1.000000000000000000 ) ) ;
#119 = CARTESIAN_POINT ( 'NONE',  ( 2.129803616694311221E-13, 1.199999999999993072, 61.00000000000000000 ) ) ;
#120 = CONICAL_SURFACE ( 'NONE', #15, 1.200000000000000622, 0.7853981633974338461 ) ;
#121 = PERSON_AND_ORGANIZATION ( #26, #103 ) ;
#122 = APPROVAL ( #2, 'UNSPECIFIED' ) ;
#123 = FACE_OUTER_BOUND ( 'NONE', #192, .T. ) ;
#124 = APPLICATION_CONTEXT ( 'configuration controlled 3d designs of mechanical parts and assemblies' ) ;
#125 = COORDINATED_UNIVERSAL_TIME_OFFSET ( 1, 0, .AHEAD. ) ;
#126 = CLOSED_SHELL ( 'NONE', ( #3, #30, #142, #7 ) ) ;
#127 = DIRECTION ( 'NONE',  ( -3.491481338843133355E-15, 1.224646799147353454E-16, -1.000000000000000000 ) ) ;
#128 = DIRECTION ( 'NONE',  ( -3.491481338843133355E-15, 1.224646799147353454E-16, -1.000000000000000000 ) ) ;
#129 = EDGE_LOOP ( 'NONE', ( #100 ) ) ;
#130 = CC_DESIGN_APPROVAL ( #66, ( #102 ) ) ;
#131 = CARTESIAN_POINT ( 'NONE',  ( 1.152188841818234133E-13, 1.124819836996385269E-32, 33.00000000000000000 ) ) ;
#132 = ADVANCED_FACE ( 'NONE', ( #108, #123 ), #107, .T. ) ;
#133 = AXIS2_PLACEMENT_3D ( 'NONE', #171, #28, #16 ) ;
#134 = COORDINATED_UNIVERSAL_TIME_OFFSET ( 1, 0, .AHEAD. ) ;
#135 = PERSON_AND_ORGANIZATION_ROLE ( 'creator' ) ;
#136 = CC_DESIGN_APPROVAL ( #122, ( #92 ) ) ;
#137 = DIRECTION ( 'NONE',  ( 0.0000000000000000000, 1.000000000000000000, 0.0000000000000000000 ) ) ;
#138 = VERTEX_POINT ( 'NONE', #202 ) ;
#139 = DIRECTION ( 'NONE',  ( -3.491481338843133355E-15, 1.224646799147353454E-16, -1.000000000000000000 ) ) ;
#140 = APPROVAL_ROLE ( '' ) ;
#141 = PERSON_AND_ORGANIZATION ( #26, #103 ) ;
#142 = ADVANCED_FACE ( 'NONE', ( #19, #79 ), #120, .T. ) ;
#143 = CC_DESIGN_APPROVAL ( #153, ( #178 ) ) ;
#144 = EDGE_LOOP ( 'NONE', ( #8 ) ) ;
#145 = AXIS2_PLACEMENT_3D ( 'NONE', #170, #200, #61 ) ;
#146 = LOCAL_TIME ( 13, 34, 59.00000000000000000, #134 ) ;
#147 = CC_DESIGN_PERSON_AND_ORGANIZATION_ASSIGNMENT ( #109, #31, ( #178 ) ) ;
#148 = AXIS2_PLACEMENT_3D ( 'NONE', #83, #127, #191 ) ;
#149 = APPLICATION_PROTOCOL_DEFINITION ( 'international standard', 'config_control_design', 1994, #182 ) ;
#150 = DIRECTION ( 'NONE',  ( 0.0000000000000000000, 1.000000000000000000, 0.0000000000000000000 ) ) ;
#151 = AXIS2_PLACEMENT_3D ( 'NONE', #188, #118, #110 ) ;
#152 = DIRECTION ( 'NONE',  ( 4.275831445896960358E-31, 1.000000000000000000, 1.224646799147353454E-16 ) ) ;
#153 = APPROVAL ( #198, 'UNSPECIFIED' ) ;
#154 = CARTESIAN_POINT ( 'NONE',  ( 0.0000000000000000000, 0.0000000000000000000, 0.0000000000000000000 ) ) ;
#155 = PERSON_AND_ORGANIZATION ( #26, #103 ) ;
#156 = APPROVAL_PERSON_ORGANIZATION ( #60, #66, #140 ) ;
#157 = CARTESIAN_POINT ( 'NONE',  ( 3.146840457870710577E-15, 1.499999999999993117, 0.9012909285413464033 ) ) ;
#158 = LOCAL_TIME ( 13, 34, 59.00000000000000000, #43 ) ;
#159 = CALENDAR_DATE ( 2021, 4, 10 ) ;
#160 = PERSON_AND_ORGANIZATION_ROLE ( 'classification_officer' ) ;
#161 = ORIENTED_EDGE ( 'NONE', *, *, #14, .F. ) ;
#162 = FACE_OUTER_BOUND ( 'NONE', #72, .T. ) ;
#163 = ORIENTED_EDGE ( 'NONE', *, *, #106, .T. ) ;
#164 = CIRCLE ( 'NONE', #151, 1.499999999999993339 ) ;
#165 = DIRECTION ( 'NONE',  ( -4.275831445896959482E-31, -1.000000000000000000, -1.224646799147353454E-16 ) ) ;
#166 = ADVANCED_BREP_SHAPE_REPRESENTATION ( '53716', ( #181, #46, #203 ), #59 ) ;
#167 = CALENDAR_DATE ( 2021, 4, 10 ) ;
#168 = FACE_OUTER_BOUND ( 'NONE', #112, .T. ) ;
#169 = AXIS2_PLACEMENT_3D ( 'NONE', #42, #105, #29 ) ;
#170 = CARTESIAN_POINT ( 'NONE',  ( 1.152188841818234133E-13, 1.124819836996385269E-32, 33.00000000000000000 ) ) ;
#171 = CARTESIAN_POINT ( 'NONE',  ( 3.146840457870709788E-15, -1.103763050738705677E-16, 0.9012909285413461813 ) ) ;
#172 = SECURITY_CLASSIFICATION_LEVEL ( 'unclassified' ) ;
#173 = FACE_OUTER_BOUND ( 'NONE', #193, .T. ) ;
#174 = PERSON_AND_ORGANIZATION ( #26, #103 ) ;
#175 =( NAMED_UNIT ( * ) SI_UNIT ( $, .STERADIAN. ) SOLID_ANGLE_UNIT ( ) );
#176 = FACE_OUTER_BOUND ( 'NONE', #23, .T. ) ;
#177 = PLANE ( 'NONE',  #48 ) ;
#178 = PRODUCT_DEFINITION_FORMATION_WITH_SPECIFIED_SOURCE ( 'ANY', '', #201, .NOT_KNOWN. ) ;
#179 = ORIENTED_EDGE ( 'NONE', *, *, #57, .T. ) ;
#180 = CIRCLE ( 'NONE', #27, 1.500000000000000444 ) ;
#181 = MANIFOLD_SOLID_BREP ( 'Corps-Déplacer/Copier1[1]', #126 ) ;
#182 = APPLICATION_CONTEXT ( 'configuration controlled 3d designs of mechanical parts and assemblies' ) ;
#183 = DATE_AND_TIME ( #116, #146 ) ;
#184 = CARTESIAN_POINT ( 'NONE',  ( 0.0000000000000000000, 0.0000000000000000000, 0.0000000000000000000 ) ) ;
#185 = DIRECTION ( 'NONE',  ( -3.491481338843133355E-15, 1.224646799147353454E-16, -1.000000000000000000 ) ) ;
#186 = CARTESIAN_POINT ( 'NONE',  ( 1.152188841818234133E-13, -4.041334437186266989E-15, 33.00000000000000000 ) ) ;
#187 = CC_DESIGN_DATE_AND_TIME_ASSIGNMENT ( #189, #13, ( #102 ) ) ;
#188 = CARTESIAN_POINT ( 'NONE',  ( 3.146840457870709788E-15, -1.103763050738705677E-16, 0.9012909285413461813 ) ) ;
#189 = DATE_AND_TIME ( #167, #40 ) ;
#190 = DIRECTION ( 'NONE',  ( -3.491481338843133355E-15, 1.224646799147353454E-16, -1.000000000000000000 ) ) ;
#191 = DIRECTION ( 'NONE',  ( 4.275831445896959482E-31, 1.000000000000000000, 1.224646799147353454E-16 ) ) ;
#192 = EDGE_LOOP ( 'NONE', ( #51 ) ) ;
#193 = EDGE_LOOP ( 'NONE', ( #9 ) ) ;
#194 = ADVANCED_FACE ( 'NONE', ( #173 ), #76, .T. ) ;
#195 = DESIGN_CONTEXT ( 'detailed design', #182, 'design' ) ;
#196 = CLOSED_SHELL ( 'NONE', ( #88, #132, #194 ) ) ;
#197 = PERSON_AND_ORGANIZATION ( #26, #103 ) ;
#198 = APPROVAL_STATUS ( 'not_yet_approved' ) ;
#199 = APPROVAL_ROLE ( '' ) ;
#200 = DIRECTION ( 'NONE',  ( 3.491481338843133355E-15, -1.224646799147353454E-16, 1.000000000000000000 ) ) ;
#201 = PRODUCT ( '53716', '53716', '', ( #5 ) ) ;
#202 = CARTESIAN_POINT ( 'NONE',  ( 1.152188841818234133E-13, 1.499999999999993117, 33.00000000000000000 ) ) ;
#203 = AXIS2_PLACEMENT_3D ( 'NONE', #184, #111, #45 ) ;
ENDSEC;
END-ISO-10303-21;
