ISO-10303-21;
HEADER;
FILE_DESCRIPTION (( 'STEP AP203' ),
    '1' );
FILE_NAME ('53712.step',
    '2021-09-02T13:37:47',
    ( '' ),
    ( '' ),
    'SwSTEP 2.0',
    'SolidWorks 2019',
    '' );
FILE_SCHEMA (( 'CONFIG_CONTROL_DESIGN' ));
ENDSEC;

DATA;
#1 = AXIS2_PLACEMENT_3D ( 'NONE', #323, #254, #168 ) ;
#2 = DIRECTION ( 'NONE',  ( 3.081487911019594443E-31, 1.000000000000000000, 8.673617379884083543E-17 ) ) ;
#3 = ORIENTED_EDGE ( 'NONE', *, *, #284, .F. ) ;
#4 = CARTESIAN_POINT ( 'NONE',  ( 2.622367048225589715E-15, -9.198025422822537447E-17, 0.7510757737844545590 ) ) ;
#5 = CC_DESIGN_PERSON_AND_ORGANIZATION_ASSIGNMENT ( #326, #308, ( #102 ) ) ;
#6 = AXIS2_PLACEMENT_3D ( 'NONE', #203, #301, #200 ) ;
#7 = APPROVAL_PERSON_ORGANIZATION ( #250, #204, #15 ) ;
#8 = EDGE_LOOP ( 'NONE', ( #224, #30, #63 ) ) ;
#9 = CARTESIAN_POINT ( 'NONE',  ( 1.979669919124056423E-13, -6.943747351165492840E-15, 56.70000000000000284 ) ) ;
#10 = ORIENTED_EDGE ( 'NONE', *, *, #235, .T. ) ;
#11 = DIRECTION ( 'NONE',  ( 0.0000000000000000000, 1.000000000000000000, 0.0000000000000000000 ) ) ;
#12 = AXIS2_PLACEMENT_3D ( 'NONE', #18, #252, #303 ) ;
#13 = ORIENTED_EDGE ( 'NONE', *, *, #27, .T. ) ;
#14 = LOCAL_TIME ( 15, 37, 47.00000000000000000, #210 ) ;
#15 = APPROVAL_ROLE ( '' ) ;
#16 = CARTESIAN_POINT ( 'NONE',  ( 1.047444401652940007E-13, 1.249999999999993117, 30.00000000000000000 ) ) ;
#17 =( NAMED_UNIT ( * ) PLANE_ANGLE_UNIT ( ) SI_UNIT ( $, .RADIAN. ) );
#18 = CARTESIAN_POINT ( 'NONE',  ( 0.0000000000000000000, 0.0000000000000000000, 0.0000000000000000000 ) ) ;
#19 = VERTEX_POINT ( 'NONE', #193 ) ;
#20 = MECHANICAL_CONTEXT ( 'NONE', #40, 'mechanical' ) ;
#21 = DIRECTION ( 'NONE',  ( 0.0000000000000000000, 1.000000000000000000, 0.0000000000000000000 ) ) ;
#22 =( LENGTH_UNIT ( ) NAMED_UNIT ( * ) SI_UNIT ( .MILLI., .METRE. ) );
#23 = LINE ( 'NONE', #233, #263 ) ;
#24 = PERSON_AND_ORGANIZATION_ROLE ( 'design_owner' ) ;
#25 = ADVANCED_FACE ( 'NONE', ( #90 ), #325, .T. ) ;
#26 = SECURITY_CLASSIFICATION ( '', '', #48 ) ;
#27 = EDGE_CURVE ( 'NONE', #156, #260, #283, .T. ) ;
#28 = CIRCLE ( 'NONE', #144, 1.250000000000000000 ) ;
#29 = FACE_OUTER_BOUND ( 'NONE', #321, .T. ) ;
#30 = ORIENTED_EDGE ( 'NONE', *, *, #160, .T. ) ;
#31 = EDGE_CURVE ( 'NONE', #298, #146, #169, .T. ) ;
#32 = DIRECTION ( 'NONE',  ( -3.491481338843133355E-15, 1.224646799147353207E-16, -1.000000000000000000 ) ) ;
#33 = PERSON ( 'UNSPECIFIED', 'UNSPECIFIED', 'UNSPECIFIED', ('UNSPECIFIED'), ('UNSPECIFIED'), ('UNSPECIFIED') ) ;
#34 = AXIS2_PLACEMENT_3D ( 'NONE', #145, #221, #87 ) ;
#35 = CC_DESIGN_APPROVAL ( #66, ( #102 ) ) ;
#36 = ORIENTED_EDGE ( 'NONE', *, *, #31, .T. ) ;
#37 = DIRECTION ( 'NONE',  ( -3.081487911019594443E-31, -1.000000000000000000, -8.673617379884083543E-17 ) ) ;
#38 = CC_DESIGN_DATE_AND_TIME_ASSIGNMENT ( #71, #143, ( #26 ) ) ;
#39 = CARTESIAN_POINT ( 'NONE',  ( 1.990144363140586139E-13, 0.9499999999999931832, 57.00000000000000000 ) ) ;
#40 = APPLICATION_CONTEXT ( 'configuration controlled 3d designs of mechanical parts and assemblies' ) ;
#41 = FACE_OUTER_BOUND ( 'NONE', #68, .T. ) ;
#42 = CONICAL_SURFACE ( 'NONE', #196, 0.9500000000000000666, 0.7853981633974453924 ) ;
#43 = DIRECTION ( 'NONE',  ( -3.491481338843133355E-15, 1.224646799147353207E-16, -1.000000000000000000 ) ) ;
#44 = DIRECTION ( 'NONE',  ( 0.0000000000000000000, 1.000000000000000000, 0.0000000000000000000 ) ) ;
#45 = PRODUCT_RELATED_PRODUCT_CATEGORY ( 'detail', '', ( #52 ) ) ;
#46 = PERSON_AND_ORGANIZATION_ROLE ( 'creator' ) ;
#47 = FACE_OUTER_BOUND ( 'NONE', #231, .T. ) ;
#48 = SECURITY_CLASSIFICATION_LEVEL ( 'unclassified' ) ;
#49 = DIRECTION ( 'NONE',  ( -3.491481338843133355E-15, 1.224646799147353207E-16, -1.000000000000000000 ) ) ;
#50 = EDGE_LOOP ( 'NONE', ( #247, #172 ) ) ;
#51 = ORGANIZATION ( 'UNSPECIFIED', 'UNSPECIFIED', '' ) ;
#52 = PRODUCT ( '53712', '53712', '', ( #20 ) ) ;
#53 = CIRCLE ( 'NONE', #258, 0.9500000000000000666 ) ;
#54 = DIRECTION ( 'NONE',  ( -3.491481338843133355E-15, 1.224646799147353207E-16, -1.000000000000000000 ) ) ;
#55 = ORIENTED_EDGE ( 'NONE', *, *, #335, .T. ) ;
#56 = AXIS2_PLACEMENT_3D ( 'NONE', #58, #164, #37 ) ;
#57 = DIRECTION ( 'NONE',  ( 0.0000000000000000000, 1.000000000000000000, 0.0000000000000000000 ) ) ;
#58 = CARTESIAN_POINT ( 'NONE',  ( 2.622367048225589715E-15, -9.198025422822537447E-17, 0.7510757737844545590 ) ) ;
#59 = ORIENTED_EDGE ( 'NONE', *, *, #113, .T. ) ;
#60 = CONICAL_SURFACE ( 'NONE', #56, 1.249999999999993117, 1.029744258676649649 ) ;
#61 = EDGE_CURVE ( 'NONE', #260, #243, #309, .T. ) ;
#62 = DIRECTION ( 'NONE',  ( -3.491481338843133355E-15, 1.224646799147353207E-16, -1.000000000000000000 ) ) ;
#63 = ORIENTED_EDGE ( 'NONE', *, *, #128, .T. ) ;
#64 = FACE_OUTER_BOUND ( 'NONE', #8, .T. ) ;
#65 = EDGE_LOOP ( 'NONE', ( #315, #13, #131, #159 ) ) ;
#66 = APPROVAL ( #329, 'UNSPECIFIED' ) ;
#67 = FACE_OUTER_BOUND ( 'NONE', #244, .T. ) ;
#68 = EDGE_LOOP ( 'NONE', ( #214, #188 ) ) ;
#69 = DIRECTION ( 'NONE',  ( -3.491481338843133355E-15, 1.224646799147353207E-16, -1.000000000000000000 ) ) ;
#70 = CARTESIAN_POINT ( 'NONE',  ( 1.530808498934180231E-16, -1.249999999999995115, -1.530808498934190831E-16 ) ) ;
#71 = DATE_AND_TIME ( #287, #114 ) ;
#72 = AXIS2_PLACEMENT_3D ( 'NONE', #209, #290, #211 ) ;
#73 = AXIS2_PLACEMENT_3D ( 'NONE', #149, #190, #192 ) ;
#74 = AXIS2_PLACEMENT_3D ( 'NONE', #313, #264, #238 ) ;
#75 = DIRECTION ( 'NONE',  ( -2.382254525458723780E-15, -0.7071067811865453523, -0.7071067811865496822 ) ) ;
#76 = CC_DESIGN_PERSON_AND_ORGANIZATION_ASSIGNMENT ( #173, #281, ( #102 ) ) ;
#77 = CARTESIAN_POINT ( 'NONE',  ( 2.775447898119008651E-15, 1.249999999999993117, 0.7510757737844546700 ) ) ;
#78 = AXIS2_PLACEMENT_3D ( 'NONE', #274, #97, #322 ) ;
#79 = ORIENTED_EDGE ( 'NONE', *, *, #245, .F. ) ;
#80 = VERTEX_POINT ( 'NONE', #262 ) ;
#81 = MANIFOLD_SOLID_BREP ( 'Corps-Déplacer/Copier1[1]', #136 ) ;
#82 = EDGE_CURVE ( 'NONE', #134, #156, #28, .T. ) ;
#83 = SHAPE_DEFINITION_REPRESENTATION ( #91, #184 ) ;
#84 = ORIENTED_EDGE ( 'NONE', *, *, #337, .T. ) ;
#85 = LOCAL_TIME ( 15, 37, 47.00000000000000000, #125 ) ;
#86 = LOCAL_TIME ( 15, 37, 47.00000000000000000, #304 ) ;
#87 = DIRECTION ( 'NONE',  ( 0.0000000000000000000, 1.000000000000000000, 0.0000000000000000000 ) ) ;
#88 = ORIENTED_EDGE ( 'NONE', *, *, #27, .F. ) ;
#89 = FACE_OUTER_BOUND ( 'NONE', #296, .T. ) ;
#90 = FACE_OUTER_BOUND ( 'NONE', #65, .T. ) ;
#91 = PRODUCT_DEFINITION_SHAPE ( 'NONE', 'NONE',  #239 ) ;
#92 = CC_DESIGN_PERSON_AND_ORGANIZATION_ASSIGNMENT ( #121, #24, ( #52 ) ) ;
#93 = PLANE ( 'NONE',  #268 ) ;
#94 = DIRECTION ( 'NONE',  ( 3.491481338843133355E-15, -1.224646799147353207E-16, 1.000000000000000000 ) ) ;
#95 = VECTOR ( 'NONE', #255, 999.9999999999998863 ) ;
#96 = COORDINATED_UNIVERSAL_TIME_OFFSET ( 1, 0, .AHEAD. ) ;
#97 = DIRECTION ( 'NONE',  ( -3.491481338843133355E-15, 1.224646799147353207E-16, -1.000000000000000000 ) ) ;
#98 = CC_DESIGN_PERSON_AND_ORGANIZATION_ASSIGNMENT ( #150, #232, ( #26 ) ) ;
#99 = VECTOR ( 'NONE', #115, 1000.000000000000114 ) ;
#100 = EDGE_CURVE ( 'NONE', #80, #163, #53, .T. ) ;
#101 = CONICAL_SURFACE ( 'NONE', #130, 0.9500000000000000666, 0.7853981633974453924 ) ;
#102 = PRODUCT_DEFINITION_FORMATION_WITH_SPECIFIED_SOURCE ( 'ANY', '', #52, .NOT_KNOWN. ) ;
#103 = CARTESIAN_POINT ( 'NONE',  ( 1.979669919124056423E-13, 1.249999999999993117, 56.70000000000000284 ) ) ;
#104 = DIRECTION ( 'NONE',  ( 0.0000000000000000000, 1.000000000000000000, 0.0000000000000000000 ) ) ;
#105 = CC_DESIGN_PERSON_AND_ORGANIZATION_ASSIGNMENT ( #306, #46, ( #239 ) ) ;
#106 = DESIGN_CONTEXT ( 'detailed design', #251, 'design' ) ;
#107 = LINE ( 'NONE', #216, #157 ) ;
#108 = ORIENTED_EDGE ( 'NONE', *, *, #235, .F. ) ;
#109 = ADVANCED_FACE ( 'NONE', ( #29 ), #60, .T. ) ;
#110 = ORIENTED_EDGE ( 'NONE', *, *, #100, .T. ) ;
#111 = CARTESIAN_POINT ( 'NONE',  ( 2.622367048225589321E-15, -1.249999999999993117, 0.7510757737844544479 ) ) ;
#112 = ORIENTED_EDGE ( 'NONE', *, *, #141, .T. ) ;
#113 = EDGE_CURVE ( 'NONE', #134, #243, #107, .T. ) ;
#114 = LOCAL_TIME ( 15, 37, 47.00000000000000000, #333 ) ;
#115 = DIRECTION ( 'NONE',  ( -2.468850131082271655E-15, 0.7071067811865455743, -0.7071067811865493491 ) ) ;
#116 = DATE_AND_TIME ( #299, #152 ) ;
#117 = CARTESIAN_POINT ( 'NONE',  ( 0.0000000000000000000, 0.0000000000000000000, 0.0000000000000000000 ) ) ;
#118 = APPLICATION_PROTOCOL_DEFINITION ( 'international standard', 'config_control_design', 1994, #251 ) ;
#119 = CARTESIAN_POINT ( 'NONE',  ( 1.515087968887431331E-13, -1.250000000000006883, 56.70000000000000284 ) ) ;
#120 = ORIENTED_EDGE ( 'NONE', *, *, #82, .F. ) ;
#121 = PERSON_AND_ORGANIZATION ( #33, #51 ) ;
#122 = DIRECTION ( 'NONE',  ( 4.275831445896957731E-31, 1.000000000000000000, 1.224646799147353207E-16 ) ) ;
#123 = CALENDAR_DATE ( 2021, 2, 9 ) ;
#124 = CARTESIAN_POINT ( 'NONE',  ( 5.344789307371176801E-31, 1.249999999999995115, 1.530808498934185408E-16 ) ) ;
#125 = COORDINATED_UNIVERSAL_TIME_OFFSET ( 1, 0, .AHEAD. ) ;
#126 = DIRECTION ( 'NONE',  ( 0.0000000000000000000, 1.000000000000000000, 0.0000000000000000000 ) ) ;
#127 = CIRCLE ( 'NONE', #312, 1.250000000000000000 ) ;
#128 = EDGE_CURVE ( 'NONE', #146, #298, #229, .T. ) ;
#129 = ADVANCED_FACE ( 'NONE', ( #267 ), #42, .T. ) ;
#130 = AXIS2_PLACEMENT_3D ( 'NONE', #170, #278, #44 ) ;
#131 = ORIENTED_EDGE ( 'NONE', *, *, #310, .F. ) ;
#132 = DIRECTION ( 'NONE',  ( -3.491481338843133355E-15, 1.224646799147353207E-16, -1.000000000000000000 ) ) ;
#133 = ORIENTED_EDGE ( 'NONE', *, *, #197, .T. ) ;
#134 = VERTEX_POINT ( 'NONE', #103 ) ;
#135 = ADVANCED_FACE ( 'NONE', ( #162 ), #139, .T. ) ;
#136 = CLOSED_SHELL ( 'NONE', ( #129, #25, #265, #311, #330, #154 ) ) ;
#137 = AXIS2_PLACEMENT_3D ( 'NONE', #282, #49, #11 ) ;
#138 = CC_DESIGN_APPROVAL ( #204, ( #26 ) ) ;
#139 = PLANE ( 'NONE',  #72 ) ;
#140 = ORIENTED_EDGE ( 'NONE', *, *, #284, .T. ) ;
#141 = EDGE_CURVE ( 'NONE', #80, #156, #187, .T. ) ;
#142 = DIRECTION ( 'NONE',  ( 4.275831445896959482E-31, 1.000000000000000000, 1.224646799147353207E-16 ) ) ;
#143 = DATE_TIME_ROLE ( 'classification_date' ) ;
#144 = AXIS2_PLACEMENT_3D ( 'NONE', #240, #32, #57 ) ;
#145 = CARTESIAN_POINT ( 'NONE',  ( 1.047444401652940007E-13, -3.673940397442059178E-15, 30.00000000000000000 ) ) ;
#146 = VERTEX_POINT ( 'NONE', #77 ) ;
#147 = LINE ( 'NONE', #124, #293 ) ;
#148 = APPROVAL_DATE_TIME ( #234, #178 ) ;
#149 = CARTESIAN_POINT ( 'NONE',  ( 2.622367048225589715E-15, -9.198025422822537447E-17, 0.7510757737844545590 ) ) ;
#150 = PERSON_AND_ORGANIZATION ( #33, #51 ) ;
#151 = DIRECTION ( 'NONE',  ( 1.798245827342160317E-15, -0.8571673007021098911, 0.5150380749100582634 ) ) ;
#152 = LOCAL_TIME ( 15, 37, 47.00000000000000000, #96 ) ;
#153 = APPROVAL_ROLE ( '' ) ;
#154 = ADVANCED_FACE ( 'NONE', ( #180 ), #181, .F. ) ;
#155 = AXIS2_PLACEMENT_3D ( 'NONE', #4, #185, #2 ) ;
#156 = VERTEX_POINT ( 'NONE', #119 ) ;
#157 = VECTOR ( 'NONE', #318, 1000.000000000000000 ) ;
#158 = CARTESIAN_POINT ( 'NONE',  ( 1.990144363140586139E-13, -6.980486755139912911E-15, 57.00000000000000000 ) ) ;
#159 = ORIENTED_EDGE ( 'NONE', *, *, #113, .F. ) ;
#160 = EDGE_CURVE ( 'NONE', #182, #146, #230, .T. ) ;
#161 = EDGE_LOOP ( 'NONE', ( #317, #112, #120, #108 ) ) ;
#162 = FACE_OUTER_BOUND ( 'NONE', #50, .T. ) ;
#163 = VERTEX_POINT ( 'NONE', #202 ) ;
#164 = DIRECTION ( 'NONE',  ( 3.491481338843133355E-15, -1.224646799147353207E-16, 1.000000000000000000 ) ) ;
#165 = DIRECTION ( 'NONE',  ( -3.491481338843133355E-15, 1.224646799147353207E-16, -1.000000000000000000 ) ) ;
#166 = CYLINDRICAL_SURFACE ( 'NONE', #12, 1.249999999999995115 ) ;
#167 = VERTEX_POINT ( 'NONE', #199 ) ;
#168 = DIRECTION ( 'NONE',  ( 1.000000000000000000, 0.0000000000000000000, 0.0000000000000000000 ) ) ;
#169 = CIRCLE ( 'NONE', #74, 1.249999999999993117 ) ;
#170 = CARTESIAN_POINT ( 'NONE',  ( 1.990144363140586139E-13, -6.980486755139912911E-15, 57.00000000000000000 ) ) ;
#171 = CARTESIAN_POINT ( 'NONE',  ( 0.0000000000000000000, 0.0000000000000000000, 0.0000000000000000000 ) ) ;
#172 = ORIENTED_EDGE ( 'NONE', *, *, #266, .F. ) ;
#173 = PERSON_AND_ORGANIZATION ( #33, #51 ) ;
#174 = DIRECTION ( 'NONE',  ( -4.275831445896958607E-31, -1.000000000000000000, -1.224646799147353207E-16 ) ) ;
#175 = CLOSED_SHELL ( 'NONE', ( #212, #179, #109, #176, #135 ) ) ;
#176 = ADVANCED_FACE ( 'NONE', ( #324 ), #273, .T. ) ;
#177 = CALENDAR_DATE ( 2021, 2, 9 ) ;
#178 = APPROVAL ( #261, 'UNSPECIFIED' ) ;
#179 = ADVANCED_FACE ( 'NONE', ( #64 ), #228, .T. ) ;
#180 = FACE_OUTER_BOUND ( 'NONE', #253, .T. ) ;
#181 = PLANE ( 'NONE',  #336 ) ;
#182 = VERTEX_POINT ( 'NONE', #226 ) ;
#183 = VECTOR ( 'NONE', #62, 1000.000000000000000 ) ;
#184 = ADVANCED_BREP_SHAPE_REPRESENTATION ( '53712', ( #81, #207, #1 ), #208 ) ;
#185 = DIRECTION ( 'NONE',  ( -3.491481338843133355E-15, 1.224646799147353207E-16, -1.000000000000000000 ) ) ;
#186 = APPROVAL_DATE_TIME ( #242, #204 ) ;
#187 = LINE ( 'NONE', #292, #302 ) ;
#188 = ORIENTED_EDGE ( 'NONE', *, *, #61, .T. ) ;
#189 = AXIS2_PLACEMENT_3D ( 'NONE', #307, #286, #126 ) ;
#190 = DIRECTION ( 'NONE',  ( 3.491481338843133355E-15, -1.224646799147353207E-16, 1.000000000000000000 ) ) ;
#191 = EDGE_CURVE ( 'NONE', #167, #298, #279, .T. ) ;
#192 = DIRECTION ( 'NONE',  ( -3.081487911019594443E-31, -1.000000000000000000, -8.673617379884083543E-17 ) ) ;
#193 = CARTESIAN_POINT ( 'NONE',  ( 1.047444401652940007E-13, 1.249999999999993117, 30.00000000000000000 ) ) ;
#194 = APPROVAL_STATUS ( 'not_yet_approved' ) ;
#195 = DIRECTION ( 'NONE',  ( -3.491481338843133355E-15, 1.224646799147353207E-16, -1.000000000000000000 ) ) ;
#196 = AXIS2_PLACEMENT_3D ( 'NONE', #158, #132, #316 ) ;
#197 = EDGE_CURVE ( 'NONE', #19, #167, #236, .T. ) ;
#198 = CC_DESIGN_SECURITY_CLASSIFICATION ( #26, ( #102 ) ) ;
#199 = CARTESIAN_POINT ( 'NONE',  ( 5.383648445665306463E-14, -1.250000000000000444, 30.00000000000000000 ) ) ;
#200 = DIRECTION ( 'NONE',  ( 4.275831445896959482E-31, 1.000000000000000000, 1.224646799147353207E-16 ) ) ;
#201 = APPROVAL_ROLE ( '' ) ;
#202 = CARTESIAN_POINT ( 'NONE',  ( 1.990144363140586139E-13, 0.9499999999999931832, 57.00000000000000000 ) ) ;
#203 = CARTESIAN_POINT ( 'NONE',  ( 0.0000000000000000000, 0.0000000000000000000, 0.0000000000000000000 ) ) ;
#204 = APPROVAL ( #194, 'UNSPECIFIED' ) ;
#205 = DATE_TIME_ROLE ( 'creation_date' ) ;
#206 = AXIS2_PLACEMENT_3D ( 'NONE', #171, #305, #122 ) ;
#207 = MANIFOLD_SOLID_BREP ( 'Corps-Déplacer/Copier1[2]', #175 ) ;
#208 =( GEOMETRIC_REPRESENTATION_CONTEXT ( 3 ) GLOBAL_UNCERTAINTY_ASSIGNED_CONTEXT ( ( #215 ) ) GLOBAL_UNIT_ASSIGNED_CONTEXT ( ( #22, #17, #256 ) ) REPRESENTATION_CONTEXT ( 'NONE', 'WORKASPACE' ) );
#209 = CARTESIAN_POINT ( 'NONE',  ( 1.047444401652940007E-13, 9.373498641636530679E-33, 30.00000000000000000 ) ) ;
#210 = COORDINATED_UNIVERSAL_TIME_OFFSET ( 1, 0, .AHEAD. ) ;
#211 = DIRECTION ( 'NONE',  ( -4.275831445896958607E-31, -1.000000000000000000, -1.224646799147353207E-16 ) ) ;
#212 = ADVANCED_FACE ( 'NONE', ( #47 ), #166, .T. ) ;
#213 = ORIENTED_EDGE ( 'NONE', *, *, #191, .F. ) ;
#214 = ORIENTED_EDGE ( 'NONE', *, *, #310, .T. ) ;
#215 = UNCERTAINTY_MEASURE_WITH_UNIT (LENGTH_MEASURE( 1.000000000000000082E-05 ), #22, 'distance_accuracy_value', 'NONE');
#216 = CARTESIAN_POINT ( 'NONE',  ( 5.344789307371192565E-31, 1.249999999999998446, 1.530808498934189598E-16 ) ) ;
#217 = ORIENTED_EDGE ( 'NONE', *, *, #160, .F. ) ;
#218 = CC_DESIGN_DATE_AND_TIME_ASSIGNMENT ( #116, #205, ( #239 ) ) ;
#219 = DIRECTION ( 'NONE',  ( -3.491481338843133355E-15, 1.224646799147353207E-16, -1.000000000000000000 ) ) ;
#220 = ORIENTED_EDGE ( 'NONE', *, *, #31, .F. ) ;
#221 = DIRECTION ( 'NONE',  ( -3.491481338843133355E-15, 1.224646799147353207E-16, -1.000000000000000000 ) ) ;
#222 = ORIENTED_EDGE ( 'NONE', *, *, #100, .F. ) ;
#223 = CARTESIAN_POINT ( 'NONE',  ( 1.990144363140586139E-13, 7.123858967643721003E-33, 57.00000000000000000 ) ) ;
#224 = ORIENTED_EDGE ( 'NONE', *, *, #337, .F. ) ;
#225 = PERSON_AND_ORGANIZATION ( #33, #51 ) ;
#226 = CARTESIAN_POINT ( 'NONE',  ( 0.0000000000000000000, 0.0000000000000000000, 0.0000000000000000000 ) ) ;
#227 = PERSON_AND_ORGANIZATION ( #33, #51 ) ;
#228 = CONICAL_SURFACE ( 'NONE', #73, 1.249999999999993117, 1.029744258676649649 ) ;
#229 = CIRCLE ( 'NONE', #155, 1.249999999999993117 ) ;
#230 = LINE ( 'NONE', #248, #95 ) ;
#231 = EDGE_LOOP ( 'NONE', ( #133, #319, #241, #332 ) ) ;
#232 = PERSON_AND_ORGANIZATION_ROLE ( 'classification_officer' ) ;
#233 = CARTESIAN_POINT ( 'NONE',  ( 2.622367048225589321E-15, -1.249999999999993117, 0.7510757737844544479 ) ) ;
#234 = DATE_AND_TIME ( #177, #85 ) ;
#235 = EDGE_CURVE ( 'NONE', #163, #134, #327, .T. ) ;
#236 = CIRCLE ( 'NONE', #249, 1.249999999999996669 ) ;
#237 = APPROVAL_PERSON_ORGANIZATION ( #227, #178, #153 ) ;
#238 = DIRECTION ( 'NONE',  ( 3.081487911019594443E-31, 1.000000000000000000, 8.673617379884083543E-17 ) ) ;
#239 = PRODUCT_DEFINITION ( 'UNKNOWN', '', #102, #106 ) ;
#240 = CARTESIAN_POINT ( 'NONE',  ( 1.979669919124056423E-13, -6.943747351165492840E-15, 56.70000000000000284 ) ) ;
#241 = ORIENTED_EDGE ( 'NONE', *, *, #128, .F. ) ;
#242 = DATE_AND_TIME ( #269, #14 ) ;
#243 = VERTEX_POINT ( 'NONE', #16 ) ;
#244 = EDGE_LOOP ( 'NONE', ( #280, #110, #10, #3 ) ) ;
#245 = EDGE_CURVE ( 'NONE', #163, #80, #288, .T. ) ;
#246 = CARTESIAN_POINT ( 'NONE',  ( 1.515087968887432341E-13, -1.250000000000000444, 30.00000000000000000 ) ) ;
#247 = ORIENTED_EDGE ( 'NONE', *, *, #197, .F. ) ;
#248 = CARTESIAN_POINT ( 'NONE',  ( 2.775447898119008651E-15, 1.249999999999993117, 0.7510757737844546700 ) ) ;
#249 = AXIS2_PLACEMENT_3D ( 'NONE', #331, #69, #21 ) ;
#250 = PERSON_AND_ORGANIZATION ( #33, #51 ) ;
#251 = APPLICATION_CONTEXT ( 'configuration controlled 3d designs of mechanical parts and assemblies' ) ;
#252 = DIRECTION ( 'NONE',  ( -3.491481338843133355E-15, 1.224646799147353207E-16, -1.000000000000000000 ) ) ;
#253 = EDGE_LOOP ( 'NONE', ( #79, #222 ) ) ;
#254 = DIRECTION ( 'NONE',  ( 0.0000000000000000000, 0.0000000000000000000, 1.000000000000000000 ) ) ;
#255 = DIRECTION ( 'NONE',  ( 1.903218546456022717E-15, 0.8571673007021097801, 0.5150380749100585964 ) ) ;
#256 =( NAMED_UNIT ( * ) SI_UNIT ( $, .STERADIAN. ) SOLID_ANGLE_UNIT ( ) );
#257 = DATE_AND_TIME ( #123, #86 ) ;
#258 = AXIS2_PLACEMENT_3D ( 'NONE', #272, #54, #104 ) ;
#259 = DIRECTION ( 'NONE',  ( -3.491481338843133355E-15, 1.224646799147353207E-16, -1.000000000000000000 ) ) ;
#260 = VERTEX_POINT ( 'NONE', #246 ) ;
#261 = APPROVAL_STATUS ( 'not_yet_approved' ) ;
#262 = CARTESIAN_POINT ( 'NONE',  ( 1.986254252611383216E-13, -0.9500000000000070610, 57.00000000000000000 ) ) ;
#263 = VECTOR ( 'NONE', #151, 1000.000000000000000 ) ;
#264 = DIRECTION ( 'NONE',  ( -3.491481338843133355E-15, 1.224646799147353207E-16, -1.000000000000000000 ) ) ;
#265 = ADVANCED_FACE ( 'NONE', ( #41 ), #93, .F. ) ;
#266 = EDGE_CURVE ( 'NONE', #167, #19, #276, .T. ) ;
#267 = FACE_OUTER_BOUND ( 'NONE', #161, .T. ) ;
#268 = AXIS2_PLACEMENT_3D ( 'NONE', #300, #94, #174 ) ;
#269 = CALENDAR_DATE ( 2021, 2, 9 ) ;
#270 = ORIENTED_EDGE ( 'NONE', *, *, #61, .F. ) ;
#271 = APPROVAL_PERSON_ORGANIZATION ( #225, #66, #201 ) ;
#272 = CARTESIAN_POINT ( 'NONE',  ( 1.990144363140586139E-13, -6.980486755139912911E-15, 57.00000000000000000 ) ) ;
#273 = CYLINDRICAL_SURFACE ( 'NONE', #206, 1.249999999999995115 ) ;
#274 = CARTESIAN_POINT ( 'NONE',  ( 1.990144363140586139E-13, -6.980486755139912911E-15, 57.00000000000000000 ) ) ;
#275 = CARTESIAN_POINT ( 'NONE',  ( 1.530808498934184422E-16, -1.249999999999998446, -1.530808498934194775E-16 ) ) ;
#276 = CIRCLE ( 'NONE', #137, 1.249999999999996669 ) ;
#277 = APPLICATION_PROTOCOL_DEFINITION ( 'international standard', 'config_control_design', 1994, #40 ) ;
#278 = DIRECTION ( 'NONE',  ( -3.491481338843133355E-15, 1.224646799147353207E-16, -1.000000000000000000 ) ) ;
#279 = LINE ( 'NONE', #70, #183 ) ;
#280 = ORIENTED_EDGE ( 'NONE', *, *, #141, .F. ) ;
#281 = PERSON_AND_ORGANIZATION_ROLE ( 'creator' ) ;
#282 = CARTESIAN_POINT ( 'NONE',  ( 1.047444401652940007E-13, -3.673940397442059178E-15, 30.00000000000000000 ) ) ;
#283 = LINE ( 'NONE', #275, #289 ) ;
#284 = EDGE_CURVE ( 'NONE', #156, #134, #127, .T. ) ;
#285 = CC_DESIGN_APPROVAL ( #178, ( #239 ) ) ;
#286 = DIRECTION ( 'NONE',  ( -3.491481338843133355E-15, 1.224646799147353207E-16, -1.000000000000000000 ) ) ;
#287 = CALENDAR_DATE ( 2021, 2, 9 ) ;
#288 = CIRCLE ( 'NONE', #78, 0.9500000000000000666 ) ;
#289 = VECTOR ( 'NONE', #43, 1000.000000000000000 ) ;
#290 = DIRECTION ( 'NONE',  ( 3.491481338843133355E-15, -1.224646799147353207E-16, 1.000000000000000000 ) ) ;
#291 = ORIENTED_EDGE ( 'NONE', *, *, #266, .T. ) ;
#292 = CARTESIAN_POINT ( 'NONE',  ( 1.991307777599776009E-13, -0.9500000000000070610, 57.00000000000000000 ) ) ;
#293 = VECTOR ( 'NONE', #259, 1000.000000000000000 ) ;
#294 = EDGE_LOOP ( 'NONE', ( #213, #291, #55, #220 ) ) ;
#295 = CYLINDRICAL_SURFACE ( 'NONE', #328, 1.249999999999998446 ) ;
#296 = EDGE_LOOP ( 'NONE', ( #88, #140, #59, #270 ) ) ;
#297 = DIRECTION ( 'NONE',  ( 4.275831445896958607E-31, 1.000000000000000000, 1.224646799147353207E-16 ) ) ;
#298 = VERTEX_POINT ( 'NONE', #111 ) ;
#299 = CALENDAR_DATE ( 2021, 2, 9 ) ;
#300 = CARTESIAN_POINT ( 'NONE',  ( 1.047444401652940007E-13, 9.373498641636530679E-33, 30.00000000000000000 ) ) ;
#301 = DIRECTION ( 'NONE',  ( -3.491481338843133355E-15, 1.224646799147353207E-16, -1.000000000000000000 ) ) ;
#302 = VECTOR ( 'NONE', #75, 1000.000000000000000 ) ;
#303 = DIRECTION ( 'NONE',  ( 4.275831445896957731E-31, 1.000000000000000000, 1.224646799147353207E-16 ) ) ;
#304 = COORDINATED_UNIVERSAL_TIME_OFFSET ( 1, 0, .AHEAD. ) ;
#305 = DIRECTION ( 'NONE',  ( -3.491481338843133355E-15, 1.224646799147353207E-16, -1.000000000000000000 ) ) ;
#306 = PERSON_AND_ORGANIZATION ( #33, #51 ) ;
#307 = CARTESIAN_POINT ( 'NONE',  ( 1.047444401652940007E-13, -3.673940397442059178E-15, 30.00000000000000000 ) ) ;
#308 = PERSON_AND_ORGANIZATION_ROLE ( 'design_supplier' ) ;
#309 = CIRCLE ( 'NONE', #189, 1.249999999999996669 ) ;
#310 = EDGE_CURVE ( 'NONE', #243, #260, #314, .T. ) ;
#311 = ADVANCED_FACE ( 'NONE', ( #89 ), #295, .T. ) ;
#312 = AXIS2_PLACEMENT_3D ( 'NONE', #9, #195, #320 ) ;
#313 = CARTESIAN_POINT ( 'NONE',  ( 2.622367048225589715E-15, -9.198025422822537447E-17, 0.7510757737844545590 ) ) ;
#314 = CIRCLE ( 'NONE', #34, 1.249999999999996669 ) ;
#315 = ORIENTED_EDGE ( 'NONE', *, *, #82, .T. ) ;
#316 = DIRECTION ( 'NONE',  ( 0.0000000000000000000, 1.000000000000000000, 0.0000000000000000000 ) ) ;
#317 = ORIENTED_EDGE ( 'NONE', *, *, #245, .T. ) ;
#318 = DIRECTION ( 'NONE',  ( -3.491481338843133355E-15, 1.224646799147353207E-16, -1.000000000000000000 ) ) ;
#319 = ORIENTED_EDGE ( 'NONE', *, *, #191, .T. ) ;
#320 = DIRECTION ( 'NONE',  ( 0.0000000000000000000, 1.000000000000000000, 0.0000000000000000000 ) ) ;
#321 = EDGE_LOOP ( 'NONE', ( #217, #84, #36 ) ) ;
#322 = DIRECTION ( 'NONE',  ( 0.0000000000000000000, 1.000000000000000000, 0.0000000000000000000 ) ) ;
#323 = CARTESIAN_POINT ( 'NONE',  ( 0.0000000000000000000, 0.0000000000000000000, 0.0000000000000000000 ) ) ;
#324 = FACE_OUTER_BOUND ( 'NONE', #294, .T. ) ;
#325 = CYLINDRICAL_SURFACE ( 'NONE', #6, 1.249999999999998446 ) ;
#326 = PERSON_AND_ORGANIZATION ( #33, #51 ) ;
#327 = LINE ( 'NONE', #39, #99 ) ;
#328 = AXIS2_PLACEMENT_3D ( 'NONE', #117, #165, #142 ) ;
#329 = APPROVAL_STATUS ( 'not_yet_approved' ) ;
#330 = ADVANCED_FACE ( 'NONE', ( #67 ), #101, .T. ) ;
#331 = CARTESIAN_POINT ( 'NONE',  ( 1.047444401652940007E-13, -3.673940397442059178E-15, 30.00000000000000000 ) ) ;
#332 = ORIENTED_EDGE ( 'NONE', *, *, #335, .F. ) ;
#333 = COORDINATED_UNIVERSAL_TIME_OFFSET ( 1, 0, .AHEAD. ) ;
#334 = APPROVAL_DATE_TIME ( #257, #66 ) ;
#335 = EDGE_CURVE ( 'NONE', #19, #146, #147, .T. ) ;
#336 = AXIS2_PLACEMENT_3D ( 'NONE', #223, #219, #297 ) ;
#337 = EDGE_CURVE ( 'NONE', #182, #298, #23, .T. ) ;
ENDSEC;
END-ISO-10303-21;
