ISO-10303-21;
HEADER;
FILE_DESCRIPTION (( 'STEP AP203' ),
    '1' );
FILE_NAME ('53706.step',
    '2021-09-02T13:37:43',
    ( '' ),
    ( '' ),
    'SwSTEP 2.0',
    'SolidWorks 2019',
    '' );
FILE_SCHEMA (( 'CONFIG_CONTROL_DESIGN' ));
ENDSEC;

DATA;
#1 = LINE ( 'NONE', #318, #99 ) ;
#2 = VERTEX_POINT ( 'NONE', #262 ) ;
#3 = ADVANCED_FACE ( 'NONE', ( #218 ), #134, .T. ) ;
#4 = DIRECTION ( 'NONE',  ( -3.491481338843133355E-15, 1.224646799147353207E-16, -1.000000000000000000 ) ) ;
#5 = CARTESIAN_POINT ( 'NONE',  ( 1.599098453190155203E-13, 0.9499999999999944045, 45.79999999999999716 ) ) ;
#6 = VECTOR ( 'NONE', #226, 1000.000000000000000 ) ;
#7 = DIRECTION ( 'NONE',  ( 3.491481338843133355E-15, -1.224646799147353207E-16, 1.000000000000000000 ) ) ;
#8 = EDGE_CURVE ( 'NONE', #177, #105, #202, .T. ) ;
#9 = MANIFOLD_SOLID_BREP ( 'Corps-Déplacer/Copier1[1]', #147 ) ;
#10 = CC_DESIGN_PERSON_AND_ORGANIZATION_ASSIGNMENT ( #42, #174, ( #43 ) ) ;
#11 = DIRECTION ( 'NONE',  ( 1.000000000000000000, 0.0000000000000000000, 0.0000000000000000000 ) ) ;
#12 = DIRECTION ( 'NONE',  ( 0.0000000000000000000, 1.000000000000000000, 0.0000000000000000000 ) ) ;
#13 = CONICAL_SURFACE ( 'NONE', #284, 0.7500000000000000000, 0.7853981633974512766 ) ;
#14 = APPROVAL_PERSON_ORGANIZATION ( #72, #23, #300 ) ;
#15 = DATE_AND_TIME ( #144, #85 ) ;
#16 = CYLINDRICAL_SURFACE ( 'NONE', #257, 0.9499999999999986233 ) ;
#17 = ORIENTED_EDGE ( 'NONE', *, *, #258, .T. ) ;
#18 = CALENDAR_DATE ( 2021, 2, 9 ) ;
#19 = CARTESIAN_POINT ( 'NONE',  ( 0.0000000000000000000, 0.0000000000000000000, 0.0000000000000000000 ) ) ;
#20 = DIRECTION ( 'NONE',  ( 4.275831445896958607E-31, 1.000000000000000000, 1.224646799147353207E-16 ) ) ;
#21 = CONICAL_SURFACE ( 'NONE', #320, 0.7500000000000000000, 0.7853981633974512766 ) ;
#22 = DIRECTION ( 'NONE',  ( -3.491481338843133355E-15, 1.224646799147353207E-16, -1.000000000000000000 ) ) ;
#23 = APPROVAL ( #167, 'UNSPECIFIED' ) ;
#24 = CALENDAR_DATE ( 2021, 2, 9 ) ;
#25 = EDGE_LOOP ( 'NONE', ( #49, #310 ) ) ;
#26 = VECTOR ( 'NONE', #59, 1000.000000000000114 ) ;
#27 = EDGE_CURVE ( 'NONE', #180, #52, #176, .T. ) ;
#28 = EDGE_LOOP ( 'NONE', ( #155, #255, #319, #161 ) ) ;
#29 = VERTEX_POINT ( 'NONE', #62 ) ;
#30 = ORIENTED_EDGE ( 'NONE', *, *, #324, .T. ) ;
#31 = AXIS2_PLACEMENT_3D ( 'NONE', #163, #188, #259 ) ;
#32 = DIRECTION ( 'NONE',  ( -2.468850131082257455E-15, 0.7071067811865497932, -0.7071067811865453523 ) ) ;
#33 = EDGE_LOOP ( 'NONE', ( #312, #125, #53 ) ) ;
#34 = CARTESIAN_POINT ( 'NONE',  ( 1.606081415867841091E-13, -5.633375276077824704E-15, 46.00000000000000000 ) ) ;
#35 = CC_DESIGN_PERSON_AND_ORGANIZATION_ASSIGNMENT ( #225, #200, ( #285 ) ) ;
#36 = CARTESIAN_POINT ( 'NONE',  ( 1.992998956651447206E-15, -6.990499321345125107E-17, 0.5708175880761851007 ) ) ;
#37 = FACE_OUTER_BOUND ( 'NONE', #130, .T. ) ;
#38 = CIRCLE ( 'NONE', #267, 0.9499999999999970690 ) ;
#39 = APPROVAL_ROLE ( '' ) ;
#40 = DIRECTION ( 'NONE',  ( 0.0000000000000000000, 1.000000000000000000, 0.0000000000000000000 ) ) ;
#41 = MECHANICAL_CONTEXT ( 'NONE', #50, 'mechanical' ) ;
#42 = PERSON_AND_ORGANIZATION ( #54, #148 ) ;
#43 = SECURITY_CLASSIFICATION ( '', '', #293 ) ;
#44 =( LENGTH_UNIT ( ) NAMED_UNIT ( * ) SI_UNIT ( .MILLI., .METRE. ) );
#45 = AXIS2_PLACEMENT_3D ( 'NONE', #160, #214, #209 ) ;
#46 = DIRECTION ( 'NONE',  ( 4.275831445896959482E-31, 1.000000000000000000, 1.224646799147353207E-16 ) ) ;
#47 = ORIENTED_EDGE ( 'NONE', *, *, #287, .T. ) ;
#48 = EDGE_CURVE ( 'NONE', #29, #180, #322, .T. ) ;
#49 = ORIENTED_EDGE ( 'NONE', *, *, #87, .F. ) ;
#50 = APPLICATION_CONTEXT ( 'configuration controlled 3d designs of mechanical parts and assemblies' ) ;
#51 = CIRCLE ( 'NONE', #128, 0.9499999999999945155 ) ;
#52 = VERTEX_POINT ( 'NONE', #88 ) ;
#53 = ORIENTED_EDGE ( 'NONE', *, *, #8, .T. ) ;
#54 = PERSON ( 'UNSPECIFIED', 'UNSPECIFIED', 'UNSPECIFIED', ('UNSPECIFIED'), ('UNSPECIFIED'), ('UNSPECIFIED') ) ;
#55 = ORIENTED_EDGE ( 'NONE', *, *, #242, .T. ) ;
#56 = DIRECTION ( 'NONE',  ( -3.491481338843133355E-15, 1.224646799147353207E-16, -1.000000000000000000 ) ) ;
#57 = CIRCLE ( 'NONE', #191, 0.7500000000000000000 ) ;
#58 = DIRECTION ( 'NONE',  ( 0.0000000000000000000, 1.000000000000000000, 0.0000000000000000000 ) ) ;
#59 = DIRECTION ( 'NONE',  ( -2.382254525458708792E-15, -0.7071067811865495711, -0.7071067811865455743 ) ) ;
#60 = EDGE_CURVE ( 'NONE', #336, #230, #57, .T. ) ;
#61 = DIRECTION ( 'NONE',  ( 0.0000000000000000000, 1.000000000000000000, 0.0000000000000000000 ) ) ;
#62 = CARTESIAN_POINT ( 'NONE',  ( 1.184775588327010879E-13, -0.9500000000000056177, 45.79999999999999716 ) ) ;
#63 = LOCAL_TIME ( 15, 37, 43.00000000000000000, #303 ) ;
#64 = DIRECTION ( 'NONE',  ( 1.903218546456021928E-15, 0.8571673007021098911, 0.5150380749100583744 ) ) ;
#65 = DIRECTION ( 'NONE',  ( 4.275831445896958607E-31, 1.000000000000000000, 1.224646799147353207E-16 ) ) ;
#66 = CARTESIAN_POINT ( 'NONE',  ( 4.062039873602093072E-31, 0.9499999999999957367, 1.163414459189980259E-16 ) ) ;
#67 = APPROVAL ( #250, 'UNSPECIFIED' ) ;
#68 = APPLICATION_CONTEXT ( 'configuration controlled 3d designs of mechanical parts and assemblies' ) ;
#69 =( NAMED_UNIT ( * ) PLANE_ANGLE_UNIT ( ) SI_UNIT ( $, .RADIAN. ) );
#70 = CARTESIAN_POINT ( 'NONE',  ( 0.0000000000000000000, 0.0000000000000000000, 0.0000000000000000000 ) ) ;
#71 = PERSON_AND_ORGANIZATION ( #54, #148 ) ;
#72 = PERSON_AND_ORGANIZATION ( #54, #148 ) ;
#73 = EDGE_LOOP ( 'NONE', ( #55, #47, #283, #182 ) ) ;
#74 = AXIS2_PLACEMENT_3D ( 'NONE', #289, #315, #58 ) ;
#75 = AXIS2_PLACEMENT_3D ( 'NONE', #241, #198, #173 ) ;
#76 = ORIENTED_EDGE ( 'NONE', *, *, #48, .F. ) ;
#77 = EDGE_CURVE ( 'NONE', #141, #177, #89, .T. ) ;
#78 = ORIENTED_EDGE ( 'NONE', *, *, #203, .T. ) ;
#79 = ORIENTED_EDGE ( 'NONE', *, *, #48, .T. ) ;
#80 = CC_DESIGN_DATE_AND_TIME_ASSIGNMENT ( #321, #273, ( #96 ) ) ;
#81 = ORIENTED_EDGE ( 'NONE', *, *, #185, .F. ) ;
#82 = PLANE ( 'NONE',  #275 ) ;
#83 = CARTESIAN_POINT ( 'NONE',  ( 1.606081415867841091E-13, 0.7499999999999943379, 46.00000000000000000 ) ) ;
#84 = CIRCLE ( 'NONE', #216, 0.7500000000000000000 ) ;
#85 = LOCAL_TIME ( 15, 37, 43.00000000000000000, #118 ) ;
#86 = CARTESIAN_POINT ( 'NONE',  ( 1.163414459189979766E-16, -0.9499999999999986233, -1.163414459189987655E-16 ) ) ;
#87 = EDGE_CURVE ( 'NONE', #102, #2, #337, .T. ) ;
#88 = CARTESIAN_POINT ( 'NONE',  ( 7.681258945454893382E-14, 0.9499999999999944045, 22.00000000000000000 ) ) ;
#89 = LINE ( 'NONE', #136, #232 ) ;
#90 = CIRCLE ( 'NONE', #152, 0.9499999999999999556 ) ;
#91 = DIRECTION ( 'NONE',  ( 3.491481338843133355E-15, -1.224646799147353207E-16, 1.000000000000000000 ) ) ;
#92 = ADVANCED_FACE ( 'NONE', ( #211 ), #129, .T. ) ;
#93 = DIRECTION ( 'NONE',  ( 3.491481338843133355E-15, -1.224646799147353207E-16, 1.000000000000000000 ) ) ;
#94 = CYLINDRICAL_SURFACE ( 'NONE', #304, 0.9499999999999957367 ) ;
#95 = CC_DESIGN_SECURITY_CLASSIFICATION ( #43, ( #285 ) ) ;
#96 = PRODUCT_DEFINITION ( 'UNKNOWN', '', #285, #137 ) ;
#97 = CARTESIAN_POINT ( 'NONE',  ( 1.603630884308273181E-13, -0.7500000000000056621, 46.00000000000000000 ) ) ;
#98 = PERSON_AND_ORGANIZATION_ROLE ( 'design_owner' ) ;
#99 = VECTOR ( 'NONE', #166, 1000.000000000000000 ) ;
#100 = ADVANCED_FACE ( 'NONE', ( #260 ), #240, .F. ) ;
#101 = ORIENTED_EDGE ( 'NONE', *, *, #27, .F. ) ;
#102 = VERTEX_POINT ( 'NONE', #213 ) ;
#103 = CIRCLE ( 'NONE', #45, 0.9499999999999999556 ) ;
#104 = CC_DESIGN_APPROVAL ( #23, ( #285 ) ) ;
#105 = VERTEX_POINT ( 'NONE', #158 ) ;
#106 = FACE_OUTER_BOUND ( 'NONE', #33, .T. ) ;
#107 = CARTESIAN_POINT ( 'NONE',  ( 1.992998956651447206E-15, -6.990499321345125107E-17, 0.5708175880761851007 ) ) ;
#108 = CARTESIAN_POINT ( 'NONE',  ( 7.681258945454893382E-14, 7.123858967643760688E-33, 22.00000000000000000 ) ) ;
#109 = DIRECTION ( 'NONE',  ( 0.0000000000000000000, 1.000000000000000000, 0.0000000000000000000 ) ) ;
#110 = DIRECTION ( 'NONE',  ( -4.275831445896958607E-31, -1.000000000000000000, -1.224646799147353207E-16 ) ) ;
#111 = DIRECTION ( 'NONE',  ( -3.491481338843133355E-15, 1.224646799147353207E-16, -1.000000000000000000 ) ) ;
#112 = APPROVAL_STATUS ( 'not_yet_approved' ) ;
#113 = CONICAL_SURFACE ( 'NONE', #206, 0.9499999999999945155, 1.029744258676649871 ) ;
#114 = DIRECTION ( 'NONE',  ( -4.275831445896958607E-31, -1.000000000000000000, -1.224646799147353207E-16 ) ) ;
#115 = AXIS2_PLACEMENT_3D ( 'NONE', #19, #296, #11 ) ;
#116 = PERSON_AND_ORGANIZATION_ROLE ( 'creator' ) ;
#117 = CC_DESIGN_PERSON_AND_ORGANIZATION_ASSIGNMENT ( #71, #271, ( #285 ) ) ;
#118 = COORDINATED_UNIVERSAL_TIME_OFFSET ( 1, 0, .AHEAD. ) ;
#119 = DIRECTION ( 'NONE',  ( 0.0000000000000000000, 1.000000000000000000, 0.0000000000000000000 ) ) ;
#120 = APPLICATION_PROTOCOL_DEFINITION ( 'international standard', 'config_control_design', 1994, #68 ) ;
#121 = PERSON_AND_ORGANIZATION ( #54, #148 ) ;
#122 = EDGE_LOOP ( 'NONE', ( #277, #282 ) ) ;
#123 = AXIS2_PLACEMENT_3D ( 'NONE', #239, #7, #110 ) ;
#124 = CARTESIAN_POINT ( 'NONE',  ( 1.606081415867841091E-13, 0.7499999999999943379, 46.00000000000000000 ) ) ;
#125 = ORIENTED_EDGE ( 'NONE', *, *, #77, .T. ) ;
#126 = PRODUCT_DEFINITION_SHAPE ( 'NONE', 'NONE',  #96 ) ;
#127 = ORIENTED_EDGE ( 'NONE', *, *, #334, .T. ) ;
#128 = AXIS2_PLACEMENT_3D ( 'NONE', #145, #247, #253 ) ;
#129 = CONICAL_SURFACE ( 'NONE', #238, 0.9499999999999945155, 1.029744258676649871 ) ;
#130 = EDGE_LOOP ( 'NONE', ( #204, #252, #205, #308 ) ) ;
#131 = CARTESIAN_POINT ( 'NONE',  ( 1.606081415867841091E-13, -5.633375276077824704E-15, 46.00000000000000000 ) ) ;
#132 = APPROVAL ( #112, 'UNSPECIFIED' ) ;
#133 = FACE_OUTER_BOUND ( 'NONE', #122, .T. ) ;
#134 = PLANE ( 'NONE',  #290 ) ;
#135 = PRODUCT_RELATED_PRODUCT_CATEGORY ( 'detail', '', ( #156 ) ) ;
#136 = CARTESIAN_POINT ( 'NONE',  ( 1.992998956651446811E-15, -0.9499999999999946265, 0.5708175880761849896 ) ) ;
#137 = DESIGN_CONTEXT ( 'detailed design', #68, 'design' ) ;
#138 = DIRECTION ( 'NONE',  ( -3.491481338843133355E-15, 1.224646799147353207E-16, -1.000000000000000000 ) ) ;
#139 = CC_DESIGN_PERSON_AND_ORGANIZATION_ASSIGNMENT ( #268, #98, ( #156 ) ) ;
#140 = CYLINDRICAL_SURFACE ( 'NONE', #31, 0.9499999999999957367 ) ;
#141 = VERTEX_POINT ( 'NONE', #192 ) ;
#142 = CIRCLE ( 'NONE', #314, 0.9499999999999970690 ) ;
#143 = ADVANCED_FACE ( 'NONE', ( #317 ), #292, .T. ) ;
#144 = CALENDAR_DATE ( 2021, 2, 9 ) ;
#145 = CARTESIAN_POINT ( 'NONE',  ( 1.992998956651447206E-15, -6.990499321345125107E-17, 0.5708175880761851007 ) ) ;
#146 =( NAMED_UNIT ( * ) SI_UNIT ( $, .STERADIAN. ) SOLID_ANGLE_UNIT ( ) );
#147 = CLOSED_SHELL ( 'NONE', ( #195, #150, #100, #143, #281, #307 ) ) ;
#148 = ORGANIZATION ( 'UNSPECIFIED', 'UNSPECIFIED', '' ) ;
#149 = DATE_TIME_ROLE ( 'classification_date' ) ;
#150 = ADVANCED_FACE ( 'NONE', ( #223 ), #16, .T. ) ;
#151 = ORIENTED_EDGE ( 'NONE', *, *, #159, .F. ) ;
#152 = AXIS2_PLACEMENT_3D ( 'NONE', #325, #301, #119 ) ;
#153 =( GEOMETRIC_REPRESENTATION_CONTEXT ( 3 ) GLOBAL_UNCERTAINTY_ASSIGNED_CONTEXT ( ( #261 ) ) GLOBAL_UNIT_ASSIGNED_CONTEXT ( ( #44, #69, #146 ) ) REPRESENTATION_CONTEXT ( 'NONE', 'WORKASPACE' ) );
#154 = EDGE_CURVE ( 'NONE', #29, #207, #90, .T. ) ;
#155 = ORIENTED_EDGE ( 'NONE', *, *, #334, .F. ) ;
#156 = PRODUCT ( '53706', '53706', '', ( #41 ) ) ;
#157 = EDGE_LOOP ( 'NONE', ( #76, #229, #17, #101 ) ) ;
#158 = CARTESIAN_POINT ( 'NONE',  ( 2.109340402570445281E-15, 0.9499999999999944045, 0.5708175880761852117 ) ) ;
#159 = EDGE_CURVE ( 'NONE', #102, #105, #272, .T. ) ;
#160 = CARTESIAN_POINT ( 'NONE',  ( 1.599098453190155203E-13, -5.608882340094877990E-15, 45.79999999999999716 ) ) ;
#161 = ORIENTED_EDGE ( 'NONE', *, *, #8, .F. ) ;
#162 = DIRECTION ( 'NONE',  ( -4.054589356604730337E-31, -1.000000000000000000, -1.141265444721590167E-16 ) ) ;
#163 = CARTESIAN_POINT ( 'NONE',  ( 0.0000000000000000000, 0.0000000000000000000, 0.0000000000000000000 ) ) ;
#164 = EDGE_CURVE ( 'NONE', #141, #105, #294, .T. ) ;
#165 = ORIENTED_EDGE ( 'NONE', *, *, #87, .T. ) ;
#166 = DIRECTION ( 'NONE',  ( -3.491481338843133355E-15, 1.224646799147353207E-16, -1.000000000000000000 ) ) ;
#167 = APPROVAL_STATUS ( 'not_yet_approved' ) ;
#168 = APPLICATION_PROTOCOL_DEFINITION ( 'international standard', 'config_control_design', 1994, #50 ) ;
#169 = CARTESIAN_POINT ( 'NONE',  ( 1.992998956651446811E-15, -0.9499999999999946265, 0.5708175880761849896 ) ) ;
#170 = LOCAL_TIME ( 15, 37, 43.00000000000000000, #326 ) ;
#171 = DATE_AND_TIME ( #222, #332 ) ;
#172 = CARTESIAN_POINT ( 'NONE',  ( 1.163414459189976315E-16, -0.9499999999999957367, -1.163414459189984450E-16 ) ) ;
#173 = DIRECTION ( 'NONE',  ( 4.275831445896958607E-31, 1.000000000000000000, 1.224646799147353207E-16 ) ) ;
#174 = PERSON_AND_ORGANIZATION_ROLE ( 'classification_officer' ) ;
#175 = ADVANCED_FACE ( 'NONE', ( #201 ), #94, .T. ) ;
#176 = CIRCLE ( 'NONE', #219, 0.9499999999999970690 ) ;
#177 = VERTEX_POINT ( 'NONE', #169 ) ;
#178 = EDGE_LOOP ( 'NONE', ( #165, #127, #81, #151 ) ) ;
#179 = EDGE_CURVE ( 'NONE', #2, #102, #38, .T. ) ;
#180 = VERTEX_POINT ( 'NONE', #251 ) ;
#181 = CC_DESIGN_APPROVAL ( #132, ( #96 ) ) ;
#182 = ORIENTED_EDGE ( 'NONE', *, *, #199, .F. ) ;
#183 = ORIENTED_EDGE ( 'NONE', *, *, #324, .F. ) ;
#184 = CARTESIAN_POINT ( 'NONE',  ( 1.606081415867841091E-13, 5.624099184981881869E-33, 46.00000000000000000 ) ) ;
#185 = EDGE_CURVE ( 'NONE', #105, #177, #51, .T. ) ;
#186 = FACE_OUTER_BOUND ( 'NONE', #178, .T. ) ;
#187 = DIRECTION ( 'NONE',  ( 0.0000000000000000000, 1.000000000000000000, 0.0000000000000000000 ) ) ;
#188 = DIRECTION ( 'NONE',  ( -3.491481338843133355E-15, 1.224646799147353207E-16, -1.000000000000000000 ) ) ;
#189 = DIRECTION ( 'NONE',  ( 4.054589356604730337E-31, 1.000000000000000000, 1.141265444721590167E-16 ) ) ;
#190 = LINE ( 'NONE', #291, #26 ) ;
#191 = AXIS2_PLACEMENT_3D ( 'NONE', #131, #4, #187 ) ;
#192 = CARTESIAN_POINT ( 'NONE',  ( 0.0000000000000000000, 0.0000000000000000000, 0.0000000000000000000 ) ) ;
#193 = CARTESIAN_POINT ( 'NONE',  ( 0.0000000000000000000, 0.0000000000000000000, 0.0000000000000000000 ) ) ;
#194 = DATE_AND_TIME ( #295, #63 ) ;
#195 = ADVANCED_FACE ( 'NONE', ( #276 ), #21, .T. ) ;
#196 = APPROVAL_PERSON_ORGANIZATION ( #121, #67, #227 ) ;
#197 = COORDINATED_UNIVERSAL_TIME_OFFSET ( 1, 0, .AHEAD. ) ;
#198 = DIRECTION ( 'NONE',  ( -3.491481338843133355E-15, 1.224646799147353207E-16, -1.000000000000000000 ) ) ;
#199 = EDGE_CURVE ( 'NONE', #230, #207, #306, .T. ) ;
#200 = PERSON_AND_ORGANIZATION_ROLE ( 'design_supplier' ) ;
#201 = FACE_OUTER_BOUND ( 'NONE', #28, .T. ) ;
#202 = CIRCLE ( 'NONE', #309, 0.9499999999999945155 ) ;
#203 = EDGE_CURVE ( 'NONE', #207, #29, #103, .T. ) ;
#204 = ORIENTED_EDGE ( 'NONE', *, *, #287, .F. ) ;
#205 = ORIENTED_EDGE ( 'NONE', *, *, #199, .T. ) ;
#206 = AXIS2_PLACEMENT_3D ( 'NONE', #107, #316, #208 ) ;
#207 = VERTEX_POINT ( 'NONE', #5 ) ;
#208 = DIRECTION ( 'NONE',  ( -4.054589356604730337E-31, -1.000000000000000000, -1.141265444721590167E-16 ) ) ;
#209 = DIRECTION ( 'NONE',  ( 0.0000000000000000000, 1.000000000000000000, 0.0000000000000000000 ) ) ;
#210 = CC_DESIGN_DATE_AND_TIME_ASSIGNMENT ( #329, #149, ( #43 ) ) ;
#211 = FACE_OUTER_BOUND ( 'NONE', #278, .T. ) ;
#212 = CARTESIAN_POINT ( 'NONE',  ( 7.681258945454893382E-14, -2.694222958124176809E-15, 22.00000000000000000 ) ) ;
#213 = CARTESIAN_POINT ( 'NONE',  ( 7.681258945454893382E-14, 0.9499999999999944045, 22.00000000000000000 ) ) ;
#214 = DIRECTION ( 'NONE',  ( -3.491481338843133355E-15, 1.224646799147353207E-16, -1.000000000000000000 ) ) ;
#215 = DIRECTION ( 'NONE',  ( -3.491481338843133355E-15, 1.224646799147353207E-16, -1.000000000000000000 ) ) ;
#216 = AXIS2_PLACEMENT_3D ( 'NONE', #235, #263, #109 ) ;
#217 = APPROVAL_DATE_TIME ( #15, #132 ) ;
#218 = FACE_OUTER_BOUND ( 'NONE', #25, .T. ) ;
#219 = AXIS2_PLACEMENT_3D ( 'NONE', #212, #215, #12 ) ;
#220 = DIRECTION ( 'NONE',  ( -3.491481338843133355E-15, 1.224646799147353207E-16, -1.000000000000000000 ) ) ;
#221 = DIRECTION ( 'NONE',  ( -3.491481338843133355E-15, 1.224646799147353207E-16, -1.000000000000000000 ) ) ;
#222 = CALENDAR_DATE ( 2021, 2, 9 ) ;
#223 = FACE_OUTER_BOUND ( 'NONE', #313, .T. ) ;
#224 = CARTESIAN_POINT ( 'NONE',  ( 7.681258945454893382E-14, -2.694222958124176809E-15, 22.00000000000000000 ) ) ;
#225 = PERSON_AND_ORGANIZATION ( #54, #148 ) ;
#226 = DIRECTION ( 'NONE',  ( -3.491481338843133355E-15, 1.224646799147353207E-16, -1.000000000000000000 ) ) ;
#227 = APPROVAL_ROLE ( '' ) ;
#228 = VECTOR ( 'NONE', #32, 1000.000000000000114 ) ;
#229 = ORIENTED_EDGE ( 'NONE', *, *, #154, .T. ) ;
#230 = VERTEX_POINT ( 'NONE', #83 ) ;
#231 = ORIENTED_EDGE ( 'NONE', *, *, #77, .F. ) ;
#232 = VECTOR ( 'NONE', #237, 1000.000000000000000 ) ;
#233 = DIRECTION ( 'NONE',  ( 0.0000000000000000000, 1.000000000000000000, 0.0000000000000000000 ) ) ;
#234 = ORIENTED_EDGE ( 'NONE', *, *, #164, .T. ) ;
#235 = CARTESIAN_POINT ( 'NONE',  ( 1.606081415867841091E-13, -5.633375276077824704E-15, 46.00000000000000000 ) ) ;
#236 = ADVANCED_FACE ( 'NONE', ( #186 ), #140, .T. ) ;
#237 = DIRECTION ( 'NONE',  ( 1.798245827342159528E-15, -0.8571673007021100021, 0.5150380749100580413 ) ) ;
#238 = AXIS2_PLACEMENT_3D ( 'NONE', #288, #93, #162 ) ;
#239 = CARTESIAN_POINT ( 'NONE',  ( 7.681258945454893382E-14, 7.123858967643760688E-33, 22.00000000000000000 ) ) ;
#240 = PLANE ( 'NONE',  #123 ) ;
#241 = CARTESIAN_POINT ( 'NONE',  ( 0.0000000000000000000, 0.0000000000000000000, 0.0000000000000000000 ) ) ;
#242 = EDGE_CURVE ( 'NONE', #230, #336, #84, .T. ) ;
#243 = VECTOR ( 'NONE', #64, 1000.000000000000114 ) ;
#244 = COORDINATED_UNIVERSAL_TIME_OFFSET ( 1, 0, .AHEAD. ) ;
#245 = CC_DESIGN_APPROVAL ( #67, ( #43 ) ) ;
#246 = PERSON_AND_ORGANIZATION ( #54, #148 ) ;
#247 = DIRECTION ( 'NONE',  ( -3.491481338843133355E-15, 1.224646799147353207E-16, -1.000000000000000000 ) ) ;
#248 = APPROVAL_DATE_TIME ( #194, #67 ) ;
#249 = VECTOR ( 'NONE', #22, 1000.000000000000000 ) ;
#250 = APPROVAL_STATUS ( 'not_yet_approved' ) ;
#251 = CARTESIAN_POINT ( 'NONE',  ( 1.184775588327011888E-13, -0.9499999999999997335, 22.00000000000000000 ) ) ;
#252 = ORIENTED_EDGE ( 'NONE', *, *, #60, .T. ) ;
#253 = DIRECTION ( 'NONE',  ( 4.054589356604730337E-31, 1.000000000000000000, 1.141265444721590167E-16 ) ) ;
#254 = ORIENTED_EDGE ( 'NONE', *, *, #27, .T. ) ;
#255 = ORIENTED_EDGE ( 'NONE', *, *, #179, .T. ) ;
#256 = CARTESIAN_POINT ( 'NONE',  ( 1.606081415867841091E-13, -5.633375276077824704E-15, 46.00000000000000000 ) ) ;
#257 = AXIS2_PLACEMENT_3D ( 'NONE', #70, #221, #20 ) ;
#258 = EDGE_CURVE ( 'NONE', #207, #52, #1, .T. ) ;
#259 = DIRECTION ( 'NONE',  ( 4.275831445896959482E-31, 1.000000000000000000, 1.224646799147353207E-16 ) ) ;
#260 = FACE_OUTER_BOUND ( 'NONE', #333, .T. ) ;
#261 = UNCERTAINTY_MEASURE_WITH_UNIT (LENGTH_MEASURE( 1.000000000000000082E-05 ), #44, 'distance_accuracy_value', 'NONE');
#262 = CARTESIAN_POINT ( 'NONE',  ( 3.951913565151908840E-14, -0.9499999999999996225, 22.00000000000000000 ) ) ;
#263 = DIRECTION ( 'NONE',  ( -3.491481338843133355E-15, 1.224646799147353207E-16, -1.000000000000000000 ) ) ;
#264 = ADVANCED_FACE ( 'NONE', ( #106 ), #113, .T. ) ;
#265 = PERSON_AND_ORGANIZATION ( #54, #148 ) ;
#266 = SHAPE_DEFINITION_REPRESENTATION ( #126, #280 ) ;
#267 = AXIS2_PLACEMENT_3D ( 'NONE', #274, #270, #40 ) ;
#268 = PERSON_AND_ORGANIZATION ( #54, #148 ) ;
#269 = LOCAL_TIME ( 15, 37, 43.00000000000000000, #244 ) ;
#270 = DIRECTION ( 'NONE',  ( -3.491481338843133355E-15, 1.224646799147353207E-16, -1.000000000000000000 ) ) ;
#271 = PERSON_AND_ORGANIZATION_ROLE ( 'creator' ) ;
#272 = LINE ( 'NONE', #66, #6 ) ;
#273 = DATE_TIME_ROLE ( 'creation_date' ) ;
#274 = CARTESIAN_POINT ( 'NONE',  ( 7.681258945454893382E-14, -2.694222958124176809E-15, 22.00000000000000000 ) ) ;
#275 = AXIS2_PLACEMENT_3D ( 'NONE', #184, #56, #65 ) ;
#276 = FACE_OUTER_BOUND ( 'NONE', #73, .T. ) ;
#277 = ORIENTED_EDGE ( 'NONE', *, *, #242, .F. ) ;
#278 = EDGE_LOOP ( 'NONE', ( #231, #234, #279 ) ) ;
#279 = ORIENTED_EDGE ( 'NONE', *, *, #185, .T. ) ;
#280 = ADVANCED_BREP_SHAPE_REPRESENTATION ( '53706', ( #9, #335, #115 ), #153 ) ;
#281 = ADVANCED_FACE ( 'NONE', ( #37 ), #13, .T. ) ;
#282 = ORIENTED_EDGE ( 'NONE', *, *, #60, .F. ) ;
#283 = ORIENTED_EDGE ( 'NONE', *, *, #203, .F. ) ;
#284 = AXIS2_PLACEMENT_3D ( 'NONE', #34, #286, #61 ) ;
#285 = PRODUCT_DEFINITION_FORMATION_WITH_SPECIFIED_SOURCE ( 'ANY', '', #156, .NOT_KNOWN. ) ;
#286 = DIRECTION ( 'NONE',  ( -3.491481338843133355E-15, 1.224646799147353207E-16, -1.000000000000000000 ) ) ;
#287 = EDGE_CURVE ( 'NONE', #336, #29, #190, .T. ) ;
#288 = CARTESIAN_POINT ( 'NONE',  ( 1.992998956651447206E-15, -6.990499321345125107E-17, 0.5708175880761851007 ) ) ;
#289 = CARTESIAN_POINT ( 'NONE',  ( 7.681258945454893382E-14, -2.694222958124176809E-15, 22.00000000000000000 ) ) ;
#290 = AXIS2_PLACEMENT_3D ( 'NONE', #108, #91, #114 ) ;
#291 = CARTESIAN_POINT ( 'NONE',  ( 1.606999900967201794E-13, -0.7500000000000056621, 46.00000000000000000 ) ) ;
#292 = CYLINDRICAL_SURFACE ( 'NONE', #75, 0.9499999999999986233 ) ;
#293 = SECURITY_CLASSIFICATION_LEVEL ( 'unclassified' ) ;
#294 = LINE ( 'NONE', #328, #243 ) ;
#295 = CALENDAR_DATE ( 2021, 2, 9 ) ;
#296 = DIRECTION ( 'NONE',  ( 0.0000000000000000000, 0.0000000000000000000, 1.000000000000000000 ) ) ;
#297 = DIRECTION ( 'NONE',  ( -3.491481338843133355E-15, 1.224646799147353207E-16, -1.000000000000000000 ) ) ;
#298 = CC_DESIGN_PERSON_AND_ORGANIZATION_ASSIGNMENT ( #246, #116, ( #96 ) ) ;
#299 = CLOSED_SHELL ( 'NONE', ( #236, #92, #264, #175, #3 ) ) ;
#300 = APPROVAL_ROLE ( '' ) ;
#301 = DIRECTION ( 'NONE',  ( -3.491481338843133355E-15, 1.224646799147353207E-16, -1.000000000000000000 ) ) ;
#302 = APPROVAL_DATE_TIME ( #171, #23 ) ;
#303 = COORDINATED_UNIVERSAL_TIME_OFFSET ( 1, 0, .AHEAD. ) ;
#304 = AXIS2_PLACEMENT_3D ( 'NONE', #193, #297, #46 ) ;
#305 = APPROVAL_PERSON_ORGANIZATION ( #265, #132, #39 ) ;
#306 = LINE ( 'NONE', #124, #228 ) ;
#307 = ADVANCED_FACE ( 'NONE', ( #133 ), #82, .F. ) ;
#308 = ORIENTED_EDGE ( 'NONE', *, *, #154, .F. ) ;
#309 = AXIS2_PLACEMENT_3D ( 'NONE', #36, #138, #189 ) ;
#310 = ORIENTED_EDGE ( 'NONE', *, *, #179, .F. ) ;
#311 = DIRECTION ( 'NONE',  ( -3.491481338843133355E-15, 1.224646799147353207E-16, -1.000000000000000000 ) ) ;
#312 = ORIENTED_EDGE ( 'NONE', *, *, #164, .F. ) ;
#313 = EDGE_LOOP ( 'NONE', ( #78, #79, #183, #330 ) ) ;
#314 = AXIS2_PLACEMENT_3D ( 'NONE', #224, #220, #323 ) ;
#315 = DIRECTION ( 'NONE',  ( -3.491481338843133355E-15, 1.224646799147353207E-16, -1.000000000000000000 ) ) ;
#316 = DIRECTION ( 'NONE',  ( 3.491481338843133355E-15, -1.224646799147353207E-16, 1.000000000000000000 ) ) ;
#317 = FACE_OUTER_BOUND ( 'NONE', #157, .T. ) ;
#318 = CARTESIAN_POINT ( 'NONE',  ( 4.062039873602104458E-31, 0.9499999999999986233, 1.163414459189983957E-16 ) ) ;
#319 = ORIENTED_EDGE ( 'NONE', *, *, #159, .T. ) ;
#320 = AXIS2_PLACEMENT_3D ( 'NONE', #256, #311, #233 ) ;
#321 = DATE_AND_TIME ( #18, #170 ) ;
#322 = LINE ( 'NONE', #86, #331 ) ;
#323 = DIRECTION ( 'NONE',  ( 0.0000000000000000000, 1.000000000000000000, 0.0000000000000000000 ) ) ;
#324 = EDGE_CURVE ( 'NONE', #52, #180, #142, .T. ) ;
#325 = CARTESIAN_POINT ( 'NONE',  ( 1.599098453190155203E-13, -5.608882340094877990E-15, 45.79999999999999716 ) ) ;
#326 = COORDINATED_UNIVERSAL_TIME_OFFSET ( 1, 0, .AHEAD. ) ;
#327 = LINE ( 'NONE', #172, #249 ) ;
#328 = CARTESIAN_POINT ( 'NONE',  ( 2.109340402570445281E-15, 0.9499999999999944045, 0.5708175880761852117 ) ) ;
#329 = DATE_AND_TIME ( #24, #269 ) ;
#330 = ORIENTED_EDGE ( 'NONE', *, *, #258, .F. ) ;
#331 = VECTOR ( 'NONE', #111, 1000.000000000000000 ) ;
#332 = LOCAL_TIME ( 15, 37, 43.00000000000000000, #197 ) ;
#333 = EDGE_LOOP ( 'NONE', ( #30, #254 ) ) ;
#334 = EDGE_CURVE ( 'NONE', #2, #177, #327, .T. ) ;
#335 = MANIFOLD_SOLID_BREP ( 'Corps-Déplacer/Copier1[2]', #299 ) ;
#336 = VERTEX_POINT ( 'NONE', #97 ) ;
#337 = CIRCLE ( 'NONE', #74, 0.9499999999999970690 ) ;
ENDSEC;
END-ISO-10303-21;
