ISO-10303-21;
HEADER;
FILE_DESCRIPTION (( 'STEP AP203' ),
    '1' );
FILE_NAME ('53704.step',
    '2021-09-02T13:37:42',
    ( '' ),
    ( '' ),
    'SwSTEP 2.0',
    'SolidWorks 2019',
    '' );
FILE_SCHEMA (( 'CONFIG_CONTROL_DESIGN' ));
ENDSEC;

DATA;
#1 = DIRECTION ( 'NONE',  ( 0.0000000000000000000, 1.000000000000000000, 0.0000000000000000000 ) ) ;
#2 = DIRECTION ( 'NONE',  ( 1.000000000000000000, 0.0000000000000000000, 0.0000000000000000000 ) ) ;
#3 = ORIENTED_EDGE ( 'NONE', *, *, #170, .T. ) ;
#4 = DATE_AND_TIME ( #153, #99 ) ;
#5 = VERTEX_POINT ( 'NONE', #78 ) ;
#6 = DIRECTION ( 'NONE',  ( 4.275831445896958607E-31, 1.000000000000000000, 1.224646799147353454E-16 ) ) ;
#7 = CARTESIAN_POINT ( 'NONE',  ( 1.783209592793399571E-15, -6.254657287519320583E-17, 0.5107315261734286516 ) ) ;
#8 = VERTEX_POINT ( 'NONE', #220 ) ;
#9 = PRODUCT_DEFINITION ( 'UNKNOWN', '', #169, #183 ) ;
#10 = ORIENTED_EDGE ( 'NONE', *, *, #256, .T. ) ;
#11 = VERTEX_POINT ( 'NONE', #269 ) ;
#12 = DIRECTION ( 'NONE',  ( -3.491481338843133355E-15, 1.224646799147353207E-16, -1.000000000000000000 ) ) ;
#13 = DIRECTION ( 'NONE',  ( -3.491481338843133355E-15, 1.224646799147353207E-16, -1.000000000000000000 ) ) ;
#14 = ADVANCED_FACE ( 'NONE', ( #52 ), #243, .T. ) ;
#15 = CARTESIAN_POINT ( 'NONE',  ( 6.982962677686266711E-14, -2.449293598294706513E-15, 20.00000000000000000 ) ) ;
#16 = CARTESIAN_POINT ( 'NONE',  ( 0.0000000000000000000, 0.0000000000000000000, 0.0000000000000000000 ) ) ;
#17 = APPROVAL_PERSON_ORGANIZATION ( #233, #45, #75 ) ;
#18 = DIRECTION ( 'NONE',  ( -3.491481338843133355E-15, 1.224646799147353207E-16, -1.000000000000000000 ) ) ;
#19 = DIRECTION ( 'NONE',  ( 0.0000000000000000000, 1.000000000000000000, 0.0000000000000000000 ) ) ;
#20 = EDGE_CURVE ( 'NONE', #135, #288, #47, .T. ) ;
#21 = DIRECTION ( 'NONE',  ( 4.275831445896958607E-31, 1.000000000000000000, 1.224646799147352961E-16 ) ) ;
#22 = MECHANICAL_CONTEXT ( 'NONE', #301, 'mechanical' ) ;
#23 = PRODUCT_RELATED_PRODUCT_CATEGORY ( 'detail', '', ( #334 ) ) ;
#24 = AXIS2_PLACEMENT_3D ( 'NONE', #16, #284, #21 ) ;
#25 = APPLICATION_PROTOCOL_DEFINITION ( 'international standard', 'config_control_design', 1994, #102 ) ;
#26 = ORIENTED_EDGE ( 'NONE', *, *, #140, .F. ) ;
#27 = CARTESIAN_POINT ( 'NONE',  ( 1.097366090176018908E-13, -0.8499999999999997558, 20.00000000000000000 ) ) ;
#28 = EDGE_LOOP ( 'NONE', ( #142, #114, #321, #217 ) ) ;
#29 = EDGE_CURVE ( 'NONE', #135, #11, #290, .T. ) ;
#30 = VERTEX_POINT ( 'NONE', #27 ) ;
#31 = DIRECTION ( 'NONE',  ( -3.491481338843133355E-15, 1.224646799147353207E-16, -1.000000000000000000 ) ) ;
#32 = VERTEX_POINT ( 'NONE', #158 ) ;
#33 = PLANE ( 'NONE',  #324 ) ;
#34 = ORIENTED_EDGE ( 'NONE', *, *, #236, .F. ) ;
#35 = EDGE_CURVE ( 'NONE', #156, #11, #80, .T. ) ;
#36 = AXIS2_PLACEMENT_3D ( 'NONE', #277, #12, #37 ) ;
#37 = DIRECTION ( 'NONE',  ( 0.0000000000000000000, 1.000000000000000000, 0.0000000000000000000 ) ) ;
#38 = CARTESIAN_POINT ( 'NONE',  ( 3.634456729012408860E-31, 0.8499999999999985345, 1.040949779275248537E-16 ) ) ;
#39 = CYLINDRICAL_SURFACE ( 'NONE', #24, 0.8499999999999960920 ) ;
#40 = APPROVAL_PERSON_ORGANIZATION ( #163, #258, #214 ) ;
#41 = FACE_OUTER_BOUND ( 'NONE', #238, .T. ) ;
#42 = ADVANCED_FACE ( 'NONE', ( #223 ), #145, .T. ) ;
#43 = FACE_OUTER_BOUND ( 'NONE', #319, .T. ) ;
#44 = CARTESIAN_POINT ( 'NONE',  ( 1.783209592793399176E-15, -0.8499999999999949818, 0.5107315261734285405 ) ) ;
#45 = APPROVAL ( #206, 'UNSPECIFIED' ) ;
#46 = ORIENTED_EDGE ( 'NONE', *, *, #265, .F. ) ;
#47 = CIRCLE ( 'NONE', #127, 0.8499999999999972022 ) ;
#48 = PERSON_AND_ORGANIZATION ( #255, #180 ) ;
#49 = AXIS2_PLACEMENT_3D ( 'NONE', #231, #95, #249 ) ;
#50 = CC_DESIGN_PERSON_AND_ORGANIZATION_ASSIGNMENT ( #48, #74, ( #9 ) ) ;
#51 = ORIENTED_EDGE ( 'NONE', *, *, #96, .T. ) ;
#52 = FACE_OUTER_BOUND ( 'NONE', #259, .T. ) ;
#53 = DIRECTION ( 'NONE',  ( -4.275831445896958607E-31, -1.000000000000000000, -1.224646799147353207E-16 ) ) ;
#54 = LOCAL_TIME ( 15, 37, 42.00000000000000000, #210 ) ;
#55 = EDGE_LOOP ( 'NONE', ( #106, #240 ) ) ;
#56 = DIRECTION ( 'NONE',  ( 0.0000000000000000000, 1.000000000000000000, 0.0000000000000000000 ) ) ;
#57 = CARTESIAN_POINT ( 'NONE',  ( 3.634456729012397912E-31, 0.8499999999999960920, 1.040949779275245333E-16 ) ) ;
#58 = LINE ( 'NONE', #196, #113 ) ;
#59 = DIRECTION ( 'NONE',  ( -3.491481338843133355E-15, 1.224646799147353207E-16, -1.000000000000000000 ) ) ;
#60 = CARTESIAN_POINT ( 'NONE',  ( 1.501336975702547217E-13, 4.874219293650958539E-33, 43.00000000000000000 ) ) ;
#61 = DATE_AND_TIME ( #222, #185 ) ;
#62 = DIRECTION ( 'NONE',  ( 3.491481338843133355E-15, -1.224646799147353207E-16, 1.000000000000000000 ) ) ;
#63 = APPROVAL_DATE_TIME ( #281, #258 ) ;
#64 = DIRECTION ( 'NONE',  ( -3.491481338843133355E-15, 1.224646799147353207E-16, -1.000000000000000000 ) ) ;
#65 = CC_DESIGN_PERSON_AND_ORGANIZATION_ASSIGNMENT ( #260, #125, ( #334 ) ) ;
#66 = CARTESIAN_POINT ( 'NONE',  ( 6.982962677686266711E-14, -2.449293598294706513E-15, 20.00000000000000000 ) ) ;
#67 = LOCAL_TIME ( 15, 37, 42.00000000000000000, #166 ) ;
#68 = DIRECTION ( 'NONE',  ( 0.0000000000000000000, 1.000000000000000000, 0.0000000000000000000 ) ) ;
#69 = LINE ( 'NONE', #38, #200 ) ;
#70 = ADVANCED_FACE ( 'NONE', ( #322 ), #33, .F. ) ;
#71 = AXIS2_PLACEMENT_3D ( 'NONE', #60, #31, #110 ) ;
#72 = APPLICATION_PROTOCOL_DEFINITION ( 'international standard', 'config_control_design', 1994, #301 ) ;
#73 = AXIS2_PLACEMENT_3D ( 'NONE', #7, #86, #143 ) ;
#74 = PERSON_AND_ORGANIZATION_ROLE ( 'creator' ) ;
#75 = APPROVAL_ROLE ( '' ) ;
#76 = VECTOR ( 'NONE', #320, 1000.000000000000000 ) ;
#77 = AXIS2_PLACEMENT_3D ( 'NONE', #66, #172, #1 ) ;
#78 = CARTESIAN_POINT ( 'NONE',  ( 1.498763979463064849E-13, -0.6500000000000053513, 43.00000000000000000 ) ) ;
#79 = EDGE_CURVE ( 'NONE', #32, #298, #107, .T. ) ;
#80 = LINE ( 'NONE', #330, #90 ) ;
#81 = ORIENTED_EDGE ( 'NONE', *, *, #279, .F. ) ;
#82 = CARTESIAN_POINT ( 'NONE',  ( 6.982962677686266711E-14, 0.8499999999999947597, 20.00000000000000000 ) ) ;
#83 = CONICAL_SURFACE ( 'NONE', #304, 0.6500000000000001332, 0.7853981633974510546 ) ;
#84 = PERSON_AND_ORGANIZATION_ROLE ( 'classification_officer' ) ;
#85 = ORIENTED_EDGE ( 'NONE', *, *, #314, .T. ) ;
#86 = DIRECTION ( 'NONE',  ( -3.491481338843133355E-15, 1.224646799147353207E-16, -1.000000000000000000 ) ) ;
#87 = ORIENTED_EDGE ( 'NONE', *, *, #232, .F. ) ;
#88 = CARTESIAN_POINT ( 'NONE',  ( 6.982962677686266711E-14, -2.449293598294706513E-15, 20.00000000000000000 ) ) ;
#89 = PLANE ( 'NONE',  #197 ) ;
#90 = VECTOR ( 'NONE', #117, 1000.000000000000114 ) ;
#91 = CIRCLE ( 'NONE', #148, 0.8499999999999948708 ) ;
#92 = CARTESIAN_POINT ( 'NONE',  ( 1.501336975702547217E-13, -5.265981236333618470E-15, 43.00000000000000000 ) ) ;
#93 = ADVANCED_FACE ( 'NONE', ( #278 ), #133, .F. ) ;
#94 = CARTESIAN_POINT ( 'NONE',  ( 1.502132996121993210E-13, -0.6500000000000053513, 43.00000000000000000 ) ) ;
#95 = DIRECTION ( 'NONE',  ( -3.491481338843133355E-15, 1.224646799147353207E-16, -1.000000000000000000 ) ) ;
#96 = EDGE_CURVE ( 'NONE', #288, #135, #267, .T. ) ;
#97 = ORIENTED_EDGE ( 'NONE', *, *, #232, .T. ) ;
#98 = COORDINATED_UNIVERSAL_TIME_OFFSET ( 1, 0, .AHEAD. ) ;
#99 = LOCAL_TIME ( 15, 37, 42.00000000000000000, #235 ) ;
#100 = EDGE_CURVE ( 'NONE', #5, #32, #112, .T. ) ;
#101 = APPROVAL_DATE_TIME ( #4, #115 ) ;
#102 = APPLICATION_CONTEXT ( 'configuration controlled 3d designs of mechanical parts and assemblies' ) ;
#103 = ORIENTED_EDGE ( 'NONE', *, *, #35, .F. ) ;
#104 = CALENDAR_DATE ( 2021, 2, 9 ) ;
#105 = CLOSED_SHELL ( 'NONE', ( #289, #42, #70, #14, #325, #93 ) ) ;
#106 = ORIENTED_EDGE ( 'NONE', *, *, #256, .F. ) ;
#107 = LINE ( 'NONE', #116, #76 ) ;
#108 = APPROVAL_STATUS ( 'not_yet_approved' ) ;
#109 = ORIENTED_EDGE ( 'NONE', *, *, #140, .T. ) ;
#110 = DIRECTION ( 'NONE',  ( 4.275831445896958607E-31, 1.000000000000000000, 1.224646799147353207E-16 ) ) ;
#111 = CARTESIAN_POINT ( 'NONE',  ( 0.0000000000000000000, 0.0000000000000000000, 0.0000000000000000000 ) ) ;
#112 = CIRCLE ( 'NONE', #303, 0.6500000000000001332 ) ;
#113 = VECTOR ( 'NONE', #327, 1000.000000000000000 ) ;
#114 = ORIENTED_EDGE ( 'NONE', *, *, #100, .T. ) ;
#115 = APPROVAL ( #287, 'UNSPECIFIED' ) ;
#116 = CARTESIAN_POINT ( 'NONE',  ( 1.501336975702547217E-13, 0.6499999999999948042, 43.00000000000000000 ) ) ;
#117 = DIRECTION ( 'NONE',  ( 1.903218546456021928E-15, 0.8571673007021098911, 0.5150380749100583744 ) ) ;
#118 = DIRECTION ( 'NONE',  ( -3.491481338843133355E-15, 1.224646799147353207E-16, -1.000000000000000000 ) ) ;
#119 = FACE_OUTER_BOUND ( 'NONE', #28, .T. ) ;
#120 = ADVANCED_FACE ( 'NONE', ( #192 ), #293, .T. ) ;
#121 = CIRCLE ( 'NONE', #308, 0.6500000000000001332 ) ;
#122 = CARTESIAN_POINT ( 'NONE',  ( 1.501336975702547217E-13, -5.265981236333618470E-15, 43.00000000000000000 ) ) ;
#123 =( LENGTH_UNIT ( ) NAMED_UNIT ( * ) SI_UNIT ( .MILLI., .METRE. ) );
#124 = DIRECTION ( 'NONE',  ( 3.491481338843133355E-15, -1.224646799147353207E-16, 1.000000000000000000 ) ) ;
#125 = PERSON_AND_ORGANIZATION_ROLE ( 'design_owner' ) ;
#126 = ORIENTED_EDGE ( 'NONE', *, *, #195, .F. ) ;
#127 = AXIS2_PLACEMENT_3D ( 'NONE', #295, #167, #292 ) ;
#128 =( NAMED_UNIT ( * ) PLANE_ANGLE_UNIT ( ) SI_UNIT ( $, .RADIAN. ) );
#129 = VECTOR ( 'NONE', #250, 1000.000000000000000 ) ;
#130 = ORIENTED_EDGE ( 'NONE', *, *, #213, .T. ) ;
#131 = EDGE_CURVE ( 'NONE', #288, #8, #58, .T. ) ;
#132 = ORIENTED_EDGE ( 'NONE', *, *, #29, .T. ) ;
#133 = PLANE ( 'NONE',  #71 ) ;
#134 = CONICAL_SURFACE ( 'NONE', #276, 0.6500000000000001332, 0.7853981633974510546 ) ;
#135 = VERTEX_POINT ( 'NONE', #82 ) ;
#136 = CARTESIAN_POINT ( 'NONE',  ( 1.040949779275244840E-16, -0.8499999999999985345, -1.040949779275251989E-16 ) ) ;
#137 = SECURITY_CLASSIFICATION_LEVEL ( 'unclassified' ) ;
#138 = ORIENTED_EDGE ( 'NONE', *, *, #195, .T. ) ;
#139 = DIRECTION ( 'NONE',  ( -3.491481338843133355E-15, 1.224646799147353207E-16, -1.000000000000000000 ) ) ;
#140 = EDGE_CURVE ( 'NONE', #8, #11, #174, .T. ) ;
#141 = PERSON_AND_ORGANIZATION ( #255, #180 ) ;
#142 = ORIENTED_EDGE ( 'NONE', *, *, #314, .F. ) ;
#143 = DIRECTION ( 'NONE',  ( 4.531599869146464555E-31, 1.000000000000000000, 1.275531967630012888E-16 ) ) ;
#144 = VECTOR ( 'NONE', #18, 1000.000000000000000 ) ;
#145 = CYLINDRICAL_SURFACE ( 'NONE', #251, 0.8499999999999985345 ) ;
#146 = DIRECTION ( 'NONE',  ( 3.491481338843133355E-15, -1.224646799147353207E-16, 1.000000000000000000 ) ) ;
#147 = DIRECTION ( 'NONE',  ( 1.798245827342159528E-15, -0.8571673007021100021, 0.5150380749100580413 ) ) ;
#148 = AXIS2_PLACEMENT_3D ( 'NONE', #159, #216, #165 ) ;
#149 = DIRECTION ( 'NONE',  ( -4.531599869146464555E-31, -1.000000000000000000, -1.275531967630012888E-16 ) ) ;
#150 = CIRCLE ( 'NONE', #49, 0.8499999999999999778 ) ;
#151 = EDGE_LOOP ( 'NONE', ( #194, #186 ) ) ;
#152 = CALENDAR_DATE ( 2021, 2, 9 ) ;
#153 = CALENDAR_DATE ( 2021, 2, 9 ) ;
#154 =( GEOMETRIC_REPRESENTATION_CONTEXT ( 3 ) GLOBAL_UNCERTAINTY_ASSIGNED_CONTEXT ( ( #311 ) ) GLOBAL_UNIT_ASSIGNED_CONTEXT ( ( #123, #128, #202 ) ) REPRESENTATION_CONTEXT ( 'NONE', 'WORKASPACE' ) );
#155 = EDGE_CURVE ( 'NONE', #275, #298, #315, .T. ) ;
#156 = VERTEX_POINT ( 'NONE', #248 ) ;
#157 = ORIENTED_EDGE ( 'NONE', *, *, #170, .F. ) ;
#158 = CARTESIAN_POINT ( 'NONE',  ( 1.501336975702547217E-13, 0.6499999999999948042, 43.00000000000000000 ) ) ;
#159 = CARTESIAN_POINT ( 'NONE',  ( 1.783209592793399571E-15, -6.254657287519320583E-17, 0.5107315261734286516 ) ) ;
#160 = AXIS2_PLACEMENT_3D ( 'NONE', #239, #181, #2 ) ;
#161 = ORIENTED_EDGE ( 'NONE', *, *, #236, .T. ) ;
#162 = DIRECTION ( 'NONE',  ( -3.491481338843133355E-15, 1.224646799147353207E-16, -1.000000000000000000 ) ) ;
#163 = PERSON_AND_ORGANIZATION ( #255, #180 ) ;
#164 = ORIENTED_EDGE ( 'NONE', *, *, #35, .T. ) ;
#165 = DIRECTION ( 'NONE',  ( 4.531599869146464555E-31, 1.000000000000000000, 1.275531967630012888E-16 ) ) ;
#166 = COORDINATED_UNIVERSAL_TIME_OFFSET ( 1, 0, .AHEAD. ) ;
#167 = DIRECTION ( 'NONE',  ( -3.491481338843133355E-15, 1.224646799147353207E-16, -1.000000000000000000 ) ) ;
#168 = DIRECTION ( 'NONE',  ( 4.275831445896958607E-31, 1.000000000000000000, 1.224646799147352961E-16 ) ) ;
#169 = PRODUCT_DEFINITION_FORMATION_WITH_SPECIFIED_SOURCE ( 'ANY', '', #334, .NOT_KNOWN. ) ;
#170 = EDGE_CURVE ( 'NONE', #266, #30, #283, .T. ) ;
#171 = DIRECTION ( 'NONE',  ( -4.531599869146464555E-31, -1.000000000000000000, -1.275531967630012888E-16 ) ) ;
#172 = DIRECTION ( 'NONE',  ( -3.491481338843133355E-15, 1.224646799147353207E-16, -1.000000000000000000 ) ) ;
#173 = AXIS2_PLACEMENT_3D ( 'NONE', #88, #242, #56 ) ;
#174 = CIRCLE ( 'NONE', #73, 0.8499999999999948708 ) ;
#175 = PRODUCT_DEFINITION_SHAPE ( 'NONE', 'NONE',  #9 ) ;
#176 = CARTESIAN_POINT ( 'NONE',  ( 1.494354013024861076E-13, 0.8499999999999947597, 42.79999999999999716 ) ) ;
#177 = CC_DESIGN_DATE_AND_TIME_ASSIGNMENT ( #317, #182, ( #9 ) ) ;
#178 = FACE_OUTER_BOUND ( 'NONE', #271, .T. ) ;
#179 = ORIENTED_EDGE ( 'NONE', *, *, #29, .F. ) ;
#180 = ORGANIZATION ( 'UNSPECIFIED', 'UNSPECIFIED', '' ) ;
#181 = DIRECTION ( 'NONE',  ( 0.0000000000000000000, 0.0000000000000000000, 1.000000000000000000 ) ) ;
#182 = DATE_TIME_ROLE ( 'creation_date' ) ;
#183 = DESIGN_CONTEXT ( 'detailed design', #102, 'design' ) ;
#184 = CLOSED_SHELL ( 'NONE', ( #309, #297, #252, #120, #189 ) ) ;
#185 = LOCAL_TIME ( 15, 37, 42.00000000000000000, #291 ) ;
#186 = ORIENTED_EDGE ( 'NONE', *, *, #96, .F. ) ;
#187 = EDGE_LOOP ( 'NONE', ( #316, #51, #132, #26 ) ) ;
#188 = ORIENTED_EDGE ( 'NONE', *, *, #279, .T. ) ;
#189 = ADVANCED_FACE ( 'NONE', ( #331 ), #89, .T. ) ;
#190 = CC_DESIGN_APPROVAL ( #115, ( #169 ) ) ;
#191 = EDGE_LOOP ( 'NONE', ( #264, #130, #157, #34 ) ) ;
#192 = FACE_OUTER_BOUND ( 'NONE', #187, .T. ) ;
#193 = ADVANCED_BREP_SHAPE_REPRESENTATION ( '53704', ( #209, #204, #160 ), #154 ) ;
#194 = ORIENTED_EDGE ( 'NONE', *, *, #20, .F. ) ;
#195 = EDGE_CURVE ( 'NONE', #11, #8, #91, .T. ) ;
#196 = CARTESIAN_POINT ( 'NONE',  ( 1.040949779275241881E-16, -0.8499999999999960920, -1.040949779275249030E-16 ) ) ;
#197 = AXIS2_PLACEMENT_3D ( 'NONE', #212, #62, #53 ) ;
#198 = LINE ( 'NONE', #44, #257 ) ;
#199 = CARTESIAN_POINT ( 'NONE',  ( 1.501336975702547217E-13, -5.265981236333618470E-15, 43.00000000000000000 ) ) ;
#200 = VECTOR ( 'NONE', #227, 1000.000000000000000 ) ;
#201 = SHAPE_DEFINITION_REPRESENTATION ( #175, #193 ) ;
#202 =( NAMED_UNIT ( * ) SI_UNIT ( $, .STERADIAN. ) SOLID_ANGLE_UNIT ( ) );
#203 = LOCAL_TIME ( 15, 37, 42.00000000000000000, #98 ) ;
#204 = MANIFOLD_SOLID_BREP ( 'Corps-Déplacer/Copier1[2]', #184 ) ;
#205 = PERSON_AND_ORGANIZATION ( #255, #180 ) ;
#206 = APPROVAL_STATUS ( 'not_yet_approved' ) ;
#207 = CC_DESIGN_PERSON_AND_ORGANIZATION_ASSIGNMENT ( #141, #84, ( #219 ) ) ;
#208 = EDGE_LOOP ( 'NONE', ( #103, #97, #109 ) ) ;
#209 = MANIFOLD_SOLID_BREP ( 'Corps-Déplacer/Copier1[1]', #105 ) ;
#210 = COORDINATED_UNIVERSAL_TIME_OFFSET ( 1, 0, .AHEAD. ) ;
#211 = DIRECTION ( 'NONE',  ( -3.491481338843133355E-15, 1.224646799147353207E-16, -1.000000000000000000 ) ) ;
#212 = CARTESIAN_POINT ( 'NONE',  ( 6.982962677686266711E-14, 6.373979076312837358E-33, 20.00000000000000000 ) ) ;
#213 = EDGE_CURVE ( 'NONE', #275, #30, #268, .T. ) ;
#214 = APPROVAL_ROLE ( '' ) ;
#215 = ORIENTED_EDGE ( 'NONE', *, *, #20, .T. ) ;
#216 = DIRECTION ( 'NONE',  ( -3.491481338843133355E-15, 1.224646799147353207E-16, -1.000000000000000000 ) ) ;
#217 = ORIENTED_EDGE ( 'NONE', *, *, #155, .F. ) ;
#218 = CARTESIAN_POINT ( 'NONE',  ( 1.501336975702547217E-13, -5.265981236333618470E-15, 43.00000000000000000 ) ) ;
#219 = SECURITY_CLASSIFICATION ( '', '', #137 ) ;
#220 = CARTESIAN_POINT ( 'NONE',  ( 1.783209592793399176E-15, -0.8499999999999949818, 0.5107315261734285405 ) ) ;
#221 = DIRECTION ( 'NONE',  ( 4.275831445896958607E-31, 1.000000000000000000, 1.224646799147353454E-16 ) ) ;
#222 = CALENDAR_DATE ( 2021, 2, 9 ) ;
#223 = FACE_OUTER_BOUND ( 'NONE', #191, .T. ) ;
#224 = DIRECTION ( 'NONE',  ( 0.0000000000000000000, 1.000000000000000000, 0.0000000000000000000 ) ) ;
#225 = CARTESIAN_POINT ( 'NONE',  ( 1.097366090176017898E-13, -0.8500000000000050848, 42.79999999999999716 ) ) ;
#226 = AXIS2_PLACEMENT_3D ( 'NONE', #270, #139, #168 ) ;
#227 = DIRECTION ( 'NONE',  ( -3.491481338843133355E-15, 1.224646799147353207E-16, -1.000000000000000000 ) ) ;
#228 = DIRECTION ( 'NONE',  ( 0.0000000000000000000, 1.000000000000000000, 0.0000000000000000000 ) ) ;
#229 = AXIS2_PLACEMENT_3D ( 'NONE', #111, #59, #6 ) ;
#230 = CIRCLE ( 'NONE', #77, 0.8499999999999972022 ) ;
#231 = CARTESIAN_POINT ( 'NONE',  ( 1.494354013024861076E-13, -5.241488300350671756E-15, 42.79999999999999716 ) ) ;
#232 = EDGE_CURVE ( 'NONE', #156, #8, #198, .T. ) ;
#233 = PERSON_AND_ORGANIZATION ( #255, #180 ) ;
#234 = AXIS2_PLACEMENT_3D ( 'NONE', #15, #118, #224 ) ;
#235 = COORDINATED_UNIVERSAL_TIME_OFFSET ( 1, 0, .AHEAD. ) ;
#236 = EDGE_CURVE ( 'NONE', #298, #266, #69, .T. ) ;
#237 = APPROVAL_ROLE ( '' ) ;
#238 = EDGE_LOOP ( 'NONE', ( #10, #85, #46, #323 ) ) ;
#239 = CARTESIAN_POINT ( 'NONE',  ( 0.0000000000000000000, 0.0000000000000000000, 0.0000000000000000000 ) ) ;
#240 = ORIENTED_EDGE ( 'NONE', *, *, #100, .F. ) ;
#241 = ORIENTED_EDGE ( 'NONE', *, *, #131, .T. ) ;
#242 = DIRECTION ( 'NONE',  ( -3.491481338843133355E-15, 1.224646799147353207E-16, -1.000000000000000000 ) ) ;
#243 = CYLINDRICAL_SURFACE ( 'NONE', #229, 0.8499999999999985345 ) ;
#244 = PERSON_AND_ORGANIZATION_ROLE ( 'design_supplier' ) ;
#245 = VECTOR ( 'NONE', #211, 1000.000000000000000 ) ;
#246 = CC_DESIGN_SECURITY_CLASSIFICATION ( #219, ( #169 ) ) ;
#247 = CARTESIAN_POINT ( 'NONE',  ( 0.0000000000000000000, 0.0000000000000000000, 0.0000000000000000000 ) ) ;
#248 = CARTESIAN_POINT ( 'NONE',  ( 0.0000000000000000000, 0.0000000000000000000, 0.0000000000000000000 ) ) ;
#249 = DIRECTION ( 'NONE',  ( 0.0000000000000000000, 1.000000000000000000, 0.0000000000000000000 ) ) ;
#250 = DIRECTION ( 'NONE',  ( -2.382254525458709186E-15, -0.7071067811865493491, -0.7071067811865456854 ) ) ;
#251 = AXIS2_PLACEMENT_3D ( 'NONE', #247, #13, #221 ) ;
#252 = ADVANCED_FACE ( 'NONE', ( #307 ), #285, .T. ) ;
#253 = CONICAL_SURFACE ( 'NONE', #332, 0.8499999999999948708, 1.029744258676649871 ) ;
#254 = DIRECTION ( 'NONE',  ( -3.491481338843133355E-15, 1.224646799147353207E-16, -1.000000000000000000 ) ) ;
#255 = PERSON ( 'UNSPECIFIED', 'UNSPECIFIED', 'UNSPECIFIED', ('UNSPECIFIED'), ('UNSPECIFIED'), ('UNSPECIFIED') ) ;
#256 = EDGE_CURVE ( 'NONE', #32, #5, #121, .T. ) ;
#257 = VECTOR ( 'NONE', #147, 1000.000000000000000 ) ;
#258 = APPROVAL ( #108, 'UNSPECIFIED' ) ;
#259 = EDGE_LOOP ( 'NONE', ( #328, #294, #161, #81 ) ) ;
#260 = PERSON_AND_ORGANIZATION ( #255, #180 ) ;
#261 = CC_DESIGN_APPROVAL ( #258, ( #219 ) ) ;
#262 = PERSON_AND_ORGANIZATION ( #255, #180 ) ;
#263 = EDGE_LOOP ( 'NONE', ( #3, #188 ) ) ;
#264 = ORIENTED_EDGE ( 'NONE', *, *, #265, .T. ) ;
#265 = EDGE_CURVE ( 'NONE', #298, #275, #150, .T. ) ;
#266 = VERTEX_POINT ( 'NONE', #333 ) ;
#267 = CIRCLE ( 'NONE', #173, 0.8499999999999972022 ) ;
#268 = LINE ( 'NONE', #136, #144 ) ;
#269 = CARTESIAN_POINT ( 'NONE',  ( 1.887304570720924289E-15, 0.8499999999999947597, 0.5107315261734287626 ) ) ;
#270 = CARTESIAN_POINT ( 'NONE',  ( 0.0000000000000000000, 0.0000000000000000000, 0.0000000000000000000 ) ) ;
#271 = EDGE_LOOP ( 'NONE', ( #87, #164, #138 ) ) ;
#272 = DIRECTION ( 'NONE',  ( -4.275831445896958607E-31, -1.000000000000000000, -1.224646799147353207E-16 ) ) ;
#273 = CC_DESIGN_PERSON_AND_ORGANIZATION_ASSIGNMENT ( #262, #244, ( #169 ) ) ;
#274 = DATE_TIME_ROLE ( 'classification_date' ) ;
#275 = VERTEX_POINT ( 'NONE', #225 ) ;
#276 = AXIS2_PLACEMENT_3D ( 'NONE', #199, #302, #68 ) ;
#277 = CARTESIAN_POINT ( 'NONE',  ( 1.494354013024861076E-13, -5.241488300350671756E-15, 42.79999999999999716 ) ) ;
#278 = FACE_OUTER_BOUND ( 'NONE', #55, .T. ) ;
#279 = EDGE_CURVE ( 'NONE', #30, #266, #230, .T. ) ;
#280 = LINE ( 'NONE', #94, #129 ) ;
#281 = DATE_AND_TIME ( #306, #67 ) ;
#282 = CARTESIAN_POINT ( 'NONE',  ( 3.591051316275546359E-14, -0.8499999999999998668, 20.00000000000000000 ) ) ;
#283 = CIRCLE ( 'NONE', #234, 0.8499999999999972022 ) ;
#284 = DIRECTION ( 'NONE',  ( -3.491481338843133355E-15, 1.224646799147353207E-16, -1.000000000000000000 ) ) ;
#285 = CONICAL_SURFACE ( 'NONE', #299, 0.8499999999999948708, 1.029744258676649871 ) ;
#286 = PERSON_AND_ORGANIZATION ( #255, #180 ) ;
#287 = APPROVAL_STATUS ( 'not_yet_approved' ) ;
#288 = VERTEX_POINT ( 'NONE', #282 ) ;
#289 = ADVANCED_FACE ( 'NONE', ( #41 ), #83, .T. ) ;
#290 = LINE ( 'NONE', #57, #245 ) ;
#291 = COORDINATED_UNIVERSAL_TIME_OFFSET ( 1, 0, .AHEAD. ) ;
#292 = DIRECTION ( 'NONE',  ( 0.0000000000000000000, 1.000000000000000000, 0.0000000000000000000 ) ) ;
#293 = CYLINDRICAL_SURFACE ( 'NONE', #226, 0.8499999999999960920 ) ;
#294 = ORIENTED_EDGE ( 'NONE', *, *, #155, .T. ) ;
#295 = CARTESIAN_POINT ( 'NONE',  ( 6.982962677686266711E-14, -2.449293598294706513E-15, 20.00000000000000000 ) ) ;
#296 = DIRECTION ( 'NONE',  ( 0.0000000000000000000, 1.000000000000000000, 0.0000000000000000000 ) ) ;
#297 = ADVANCED_FACE ( 'NONE', ( #178 ), #253, .T. ) ;
#298 = VERTEX_POINT ( 'NONE', #176 ) ;
#299 = AXIS2_PLACEMENT_3D ( 'NONE', #300, #124, #149 ) ;
#300 = CARTESIAN_POINT ( 'NONE',  ( 1.783209592793399571E-15, -6.254657287519320583E-17, 0.5107315261734286516 ) ) ;
#301 = APPLICATION_CONTEXT ( 'configuration controlled 3d designs of mechanical parts and assemblies' ) ;
#302 = DIRECTION ( 'NONE',  ( -3.491481338843133355E-15, 1.224646799147353207E-16, -1.000000000000000000 ) ) ;
#303 = AXIS2_PLACEMENT_3D ( 'NONE', #218, #162, #296 ) ;
#304 = AXIS2_PLACEMENT_3D ( 'NONE', #122, #64, #228 ) ;
#305 = CARTESIAN_POINT ( 'NONE',  ( 1.783209592793399571E-15, -6.254657287519320583E-17, 0.5107315261734286516 ) ) ;
#306 = CALENDAR_DATE ( 2021, 2, 9 ) ;
#307 = FACE_OUTER_BOUND ( 'NONE', #208, .T. ) ;
#308 = AXIS2_PLACEMENT_3D ( 'NONE', #92, #254, #19 ) ;
#309 = ADVANCED_FACE ( 'NONE', ( #43 ), #39, .T. ) ;
#310 = DATE_AND_TIME ( #152, #203 ) ;
#311 = UNCERTAINTY_MEASURE_WITH_UNIT (LENGTH_MEASURE( 1.000000000000000082E-05 ), #123, 'distance_accuracy_value', 'NONE');
#312 = PERSON_AND_ORGANIZATION_ROLE ( 'creator' ) ;
#313 = APPROVAL_DATE_TIME ( #310, #45 ) ;
#314 = EDGE_CURVE ( 'NONE', #5, #275, #280, .T. ) ;
#315 = CIRCLE ( 'NONE', #36, 0.8499999999999999778 ) ;
#316 = ORIENTED_EDGE ( 'NONE', *, *, #131, .F. ) ;
#317 = DATE_AND_TIME ( #104, #54 ) ;
#318 = CC_DESIGN_DATE_AND_TIME_ASSIGNMENT ( #61, #274, ( #219 ) ) ;
#319 = EDGE_LOOP ( 'NONE', ( #215, #241, #126, #179 ) ) ;
#320 = DIRECTION ( 'NONE',  ( -2.468850131082258244E-15, 0.7071067811865495711, -0.7071067811865454633 ) ) ;
#321 = ORIENTED_EDGE ( 'NONE', *, *, #79, .T. ) ;
#322 = FACE_OUTER_BOUND ( 'NONE', #263, .T. ) ;
#323 = ORIENTED_EDGE ( 'NONE', *, *, #79, .F. ) ;
#324 = AXIS2_PLACEMENT_3D ( 'NONE', #329, #146, #272 ) ;
#325 = ADVANCED_FACE ( 'NONE', ( #119 ), #134, .T. ) ;
#326 = APPROVAL_PERSON_ORGANIZATION ( #286, #115, #237 ) ;
#327 = DIRECTION ( 'NONE',  ( -3.491481338843133355E-15, 1.224646799147353207E-16, -1.000000000000000000 ) ) ;
#328 = ORIENTED_EDGE ( 'NONE', *, *, #213, .F. ) ;
#329 = CARTESIAN_POINT ( 'NONE',  ( 6.982962677686266711E-14, 6.373979076312837358E-33, 20.00000000000000000 ) ) ;
#330 = CARTESIAN_POINT ( 'NONE',  ( 1.887304570720924289E-15, 0.8499999999999947597, 0.5107315261734287626 ) ) ;
#331 = FACE_OUTER_BOUND ( 'NONE', #151, .T. ) ;
#332 = AXIS2_PLACEMENT_3D ( 'NONE', #305, #335, #171 ) ;
#333 = CARTESIAN_POINT ( 'NONE',  ( 6.982962677686266711E-14, 0.8499999999999947597, 20.00000000000000000 ) ) ;
#334 = PRODUCT ( '53704', '53704', '', ( #22 ) ) ;
#335 = DIRECTION ( 'NONE',  ( 3.491481338843133355E-15, -1.224646799147353207E-16, 1.000000000000000000 ) ) ;
#336 = CC_DESIGN_PERSON_AND_ORGANIZATION_ASSIGNMENT ( #205, #312, ( #169 ) ) ;
#337 = CC_DESIGN_APPROVAL ( #45, ( #9 ) ) ;
ENDSEC;
END-ISO-10303-21;
