ISO-10303-21;
HEADER;
FILE_DESCRIPTION (( 'STEP AP203' ),
    '1' );
FILE_NAME ('53701.step',
    '2021-09-02T13:37:40',
    ( '' ),
    ( '' ),
    'SwSTEP 2.0',
    'SolidWorks 2019',
    '' );
FILE_SCHEMA (( 'CONFIG_CONTROL_DESIGN' ));
ENDSEC;

DATA;
#1 = CALENDAR_DATE ( 2021, 2, 9 ) ;
#2 = APPROVAL_DATE_TIME ( #194, #298 ) ;
#3 = ORIENTED_EDGE ( 'NONE', *, *, #228, .F. ) ;
#4 = AXIS2_PLACEMENT_3D ( 'NONE', #40, #150, #57 ) ;
#5 = COORDINATED_UNIVERSAL_TIME_OFFSET ( 1, 0, .AHEAD. ) ;
#6 = CARTESIAN_POINT ( 'NONE',  ( 1.389609572859567202E-13, -4.874094260606466312E-15, 39.80000000000000426 ) ) ;
#7 = APPROVAL ( #293, 'UNSPECIFIED' ) ;
#8 = APPROVAL_ROLE ( '' ) ;
#9 = ORIENTED_EDGE ( 'NONE', *, *, #160, .T. ) ;
#10 = APPROVAL_ROLE ( '' ) ;
#11 = DIRECTION ( 'NONE',  ( -5.502656983963568168E-31, -1.000000000000000000, -1.548860246407873937E-16 ) ) ;
#12 = AXIS2_PLACEMENT_3D ( 'NONE', #202, #154, #14 ) ;
#13 = ORIENTED_EDGE ( 'NONE', *, *, #106, .T. ) ;
#14 = DIRECTION ( 'NONE',  ( 5.502656983963568168E-31, 1.000000000000000000, 1.548860246407873937E-16 ) ) ;
#15 = CARTESIAN_POINT ( 'NONE',  ( 1.468525547006328119E-15, -0.6999999999999952927, 0.4206024333192939224 ) ) ;
#16 = AXIS2_PLACEMENT_3D ( 'NONE', #331, #96, #198 ) ;
#17 = DIRECTION ( 'NONE',  ( -3.491481338843133355E-15, 1.224646799147353207E-16, -1.000000000000000000 ) ) ;
#18 = EDGE_CURVE ( 'NONE', #118, #320, #208, .T. ) ;
#19 = DIRECTION ( 'NONE',  ( 0.0000000000000000000, 1.000000000000000000, 0.0000000000000000000 ) ) ;
#20 = DIRECTION ( 'NONE',  ( -4.275831445896958607E-31, -1.000000000000000000, -1.224646799147353207E-16 ) ) ;
#21 = ADVANCED_FACE ( 'NONE', ( #248 ), #199, .T. ) ;
#22 = ORIENTED_EDGE ( 'NONE', *, *, #106, .F. ) ;
#23 = LOCAL_TIME ( 15, 37, 40.00000000000000000, #214 ) ;
#24 = CARTESIAN_POINT ( 'NONE',  ( 0.0000000000000000000, 0.0000000000000000000, 0.0000000000000000000 ) ) ;
#25 = ORIENTED_EDGE ( 'NONE', *, *, #254, .T. ) ;
#26 = DIRECTION ( 'NONE',  ( 3.491481338843133355E-15, -1.224646799147353207E-16, 1.000000000000000000 ) ) ;
#27 = CC_DESIGN_PERSON_AND_ORGANIZATION_ASSIGNMENT ( #244, #39, ( #303 ) ) ;
#28 = FACE_OUTER_BOUND ( 'NONE', #91, .T. ) ;
#29 = PLANE ( 'NONE',  #259 ) ;
#30 = CALENDAR_DATE ( 2021, 2, 9 ) ;
#31 = DIRECTION ( 'NONE',  ( -3.491481338843133355E-15, 1.224646799147353207E-16, -1.000000000000000000 ) ) ;
#32 = EDGE_CURVE ( 'NONE', #335, #217, #74, .T. ) ;
#33 = ORIENTED_EDGE ( 'NONE', *, *, #98, .T. ) ;
#34 = AXIS2_PLACEMENT_3D ( 'NONE', #72, #203, #153 ) ;
#35 = ORIENTED_EDGE ( 'NONE', *, *, #257, .T. ) ;
#36 = CALENDAR_DATE ( 2021, 2, 9 ) ;
#37 = ORIENTED_EDGE ( 'NONE', *, *, #179, .T. ) ;
#38 = ADVANCED_FACE ( 'NONE', ( #212 ), #309, .T. ) ;
#39 = PERSON_AND_ORGANIZATION_ROLE ( 'creator' ) ;
#40 = CARTESIAN_POINT ( 'NONE',  ( 6.284666409917640040E-14, -2.204364238465235428E-15, 18.00000000000000000 ) ) ;
#41 = CONICAL_SURFACE ( 'NONE', #271, 0.6999999999999952927, 1.029744258676649649 ) ;
#42 = CYLINDRICAL_SURFACE ( 'NONE', #108, 0.6999999999999964029 ) ;
#43 = PRODUCT_DEFINITION_SHAPE ( 'NONE', 'NONE',  #303 ) ;
#44 = DIRECTION ( 'NONE',  ( 0.0000000000000000000, 1.000000000000000000, 0.0000000000000000000 ) ) ;
#45 = ADVANCED_FACE ( 'NONE', ( #130 ), #140, .T. ) ;
#46 = DIRECTION ( 'NONE',  ( 4.275831445896957731E-31, 1.000000000000000000, 1.224646799147353207E-16 ) ) ;
#47 = CARTESIAN_POINT ( 'NONE',  ( 1.393835842277898784E-13, -0.5000000000000051070, 40.00000000000000000 ) ) ;
#48 = CC_DESIGN_APPROVAL ( #70, ( #303 ) ) ;
#49 = CARTESIAN_POINT ( 'NONE',  ( 6.284666409917640040E-14, 0.6999999999999952927, 18.00000000000000000 ) ) ;
#50 = EDGE_CURVE ( 'NONE', #61, #220, #236, .T. ) ;
#51 = LINE ( 'NONE', #235, #131 ) ;
#52 = DIRECTION ( 'NONE',  ( 1.000000000000000000, 0.0000000000000000000, 0.0000000000000000000 ) ) ;
#53 = CC_DESIGN_DATE_AND_TIME_ASSIGNMENT ( #94, #239, ( #93 ) ) ;
#54 = DIRECTION ( 'NONE',  ( -5.502656983963568168E-31, -1.000000000000000000, -1.548860246407873937E-16 ) ) ;
#55 = CARTESIAN_POINT ( 'NONE',  ( 3.224332009903158359E-14, -0.6999999999999996225, 18.00000000000000000 ) ) ;
#56 = CIRCLE ( 'NONE', #186, 0.6999999999999975131 ) ;
#57 = DIRECTION ( 'NONE',  ( 0.0000000000000000000, 1.000000000000000000, 0.0000000000000000000 ) ) ;
#58 = PERSON_AND_ORGANIZATION ( #111, #87 ) ;
#59 = EDGE_LOOP ( 'NONE', ( #195, #263, #25 ) ) ;
#60 = PERSON_AND_ORGANIZATION ( #111, #87 ) ;
#61 = VERTEX_POINT ( 'NONE', #49 ) ;
#62 = AXIS2_PLACEMENT_3D ( 'NONE', #251, #17, #174 ) ;
#63 = APPROVAL_ROLE ( '' ) ;
#64 = EDGE_LOOP ( 'NONE', ( #245, #246, #249, #322 ) ) ;
#65 = PERSON_AND_ORGANIZATION_ROLE ( 'creator' ) ;
#66 = CARTESIAN_POINT ( 'NONE',  ( 1.468525547006328513E-15, -5.150894236780614413E-17, 0.4206024333192940334 ) ) ;
#67 = LINE ( 'NONE', #129, #323 ) ;
#68 = AXIS2_PLACEMENT_3D ( 'NONE', #125, #253, #44 ) ;
#69 = DIRECTION ( 'NONE',  ( -3.491481338843133355E-15, 1.224646799147353207E-16, -1.000000000000000000 ) ) ;
#70 = APPROVAL ( #191, 'UNSPECIFIED' ) ;
#71 = CARTESIAN_POINT ( 'NONE',  ( 1.468525547006328513E-15, -5.150894236780614413E-17, 0.4206024333192940334 ) ) ;
#72 = CARTESIAN_POINT ( 'NONE',  ( 1.396592535537253342E-13, -4.898587196589413026E-15, 40.00000000000000000 ) ) ;
#73 = APPLICATION_CONTEXT ( 'configuration controlled 3d designs of mechanical parts and assemblies' ) ;
#74 = CIRCLE ( 'NONE', #92, 0.7000000000000001776 ) ;
#75 = DIRECTION ( 'NONE',  ( -3.491481338843133355E-15, 1.224646799147353207E-16, -1.000000000000000000 ) ) ;
#76 = ADVANCED_FACE ( 'NONE', ( #196 ), #42, .T. ) ;
#77 = DIRECTION ( 'NONE',  ( 1.903218546456022717E-15, 0.8571673007021097801, 0.5150380749100585964 ) ) ;
#78 =( LENGTH_UNIT ( ) NAMED_UNIT ( * ) SI_UNIT ( .MILLI., .METRE. ) );
#79 = ADVANCED_BREP_SHAPE_REPRESENTATION ( '53701', ( #124, #123, #237 ), #301 ) ;
#80 = AXIS2_PLACEMENT_3D ( 'NONE', #184, #312, #287 ) ;
#81 = LOCAL_TIME ( 15, 37, 40.00000000000000000, #5 ) ;
#82 = EDGE_CURVE ( 'NONE', #163, #335, #300, .T. ) ;
#83 = LINE ( 'NONE', #233, #265 ) ;
#84 = PERSON_AND_ORGANIZATION ( #111, #87 ) ;
#85 = CIRCLE ( 'NONE', #68, 0.5000000000000002220 ) ;
#86 = AXIS2_PLACEMENT_3D ( 'NONE', #252, #226, #156 ) ;
#87 = ORGANIZATION ( 'UNSPECIFIED', 'UNSPECIFIED', '' ) ;
#88 = ORIENTED_EDGE ( 'NONE', *, *, #225, .T. ) ;
#89 = PERSON_AND_ORGANIZATION_ROLE ( 'design_owner' ) ;
#90 = ORIENTED_EDGE ( 'NONE', *, *, #110, .F. ) ;
#91 = EDGE_LOOP ( 'NONE', ( #264, #290, #35, #192 ) ) ;
#92 = AXIS2_PLACEMENT_3D ( 'NONE', #6, #31, #270 ) ;
#93 = SECURITY_CLASSIFICATION ( '', '', #216 ) ;
#94 = DATE_AND_TIME ( #321, #81 ) ;
#95 = ORIENTED_EDGE ( 'NONE', *, *, #50, .F. ) ;
#96 = DIRECTION ( 'NONE',  ( -3.491481338843133355E-15, 1.224646799147353207E-16, -1.000000000000000000 ) ) ;
#97 = DIRECTION ( 'NONE',  ( -3.491481338843133355E-15, 1.224646799147353207E-16, -1.000000000000000000 ) ) ;
#98 = EDGE_CURVE ( 'NONE', #134, #115, #193, .T. ) ;
#99 = DIRECTION ( 'NONE',  ( 4.275831445896957731E-31, 1.000000000000000000, 1.224646799147353207E-16 ) ) ;
#100 = CARTESIAN_POINT ( 'NONE',  ( 0.0000000000000000000, 0.0000000000000000000, 0.0000000000000000000 ) ) ;
#101 = DIRECTION ( 'NONE',  ( 0.0000000000000000000, 1.000000000000000000, 0.0000000000000000000 ) ) ;
#102 = CARTESIAN_POINT ( 'NONE',  ( 1.009895359685068446E-13, -0.6999999999999996225, 18.00000000000000000 ) ) ;
#103 = LOCAL_TIME ( 15, 37, 40.00000000000000000, #169 ) ;
#104 = DIRECTION ( 'NONE',  ( 1.798245827342160317E-15, -0.8571673007021098911, 0.5150380749100582634 ) ) ;
#105 = DIRECTION ( 'NONE',  ( -2.468850131082257455E-15, 0.7071067811865497932, -0.7071067811865453523 ) ) ;
#106 = EDGE_CURVE ( 'NONE', #327, #163, #292, .T. ) ;
#107 = DIRECTION ( 'NONE',  ( -3.491481338843133355E-15, 1.224646799147353207E-16, -1.000000000000000000 ) ) ;
#108 = AXIS2_PLACEMENT_3D ( 'NONE', #100, #75, #127 ) ;
#109 = CARTESIAN_POINT ( 'NONE',  ( 2.993082012127855610E-31, 0.6999999999999964029, 8.572527594031428816E-17 ) ) ;
#110 = EDGE_CURVE ( 'NONE', #217, #335, #204, .T. ) ;
#111 = PERSON ( 'UNSPECIFIED', 'UNSPECIFIED', 'UNSPECIFIED', ('UNSPECIFIED'), ('UNSPECIFIED'), ('UNSPECIFIED') ) ;
#112 = EDGE_LOOP ( 'NONE', ( #170, #137 ) ) ;
#113 = CLOSED_SHELL ( 'NONE', ( #38, #151, #205, #207, #45, #147 ) ) ;
#114 = DESIGN_CONTEXT ( 'detailed design', #73, 'design' ) ;
#115 = VERTEX_POINT ( 'NONE', #15 ) ;
#116 = CC_DESIGN_PERSON_AND_ORGANIZATION_ASSIGNMENT ( #58, #65, ( #317 ) ) ;
#117 = APPROVAL_DATE_TIME ( #314, #70 ) ;
#118 = VERTEX_POINT ( 'NONE', #278 ) ;
#119 = PERSON_AND_ORGANIZATION_ROLE ( 'design_supplier' ) ;
#120 = ORIENTED_EDGE ( 'NONE', *, *, #110, .T. ) ;
#121 = EDGE_LOOP ( 'NONE', ( #288, #9, #88, #294 ) ) ;
#122 = CARTESIAN_POINT ( 'NONE',  ( 0.0000000000000000000, 0.0000000000000000000, 0.0000000000000000000 ) ) ;
#123 = MANIFOLD_SOLID_BREP ( 'Corps-Déplacer/Copier1[2]', #159 ) ;
#124 = MANIFOLD_SOLID_BREP ( 'Corps-Déplacer/Copier1[1]', #113 ) ;
#125 = CARTESIAN_POINT ( 'NONE',  ( 1.396592535537253342E-13, -4.898587196589413026E-15, 40.00000000000000000 ) ) ;
#126 = AXIS2_PLACEMENT_3D ( 'NONE', #152, #224, #20 ) ;
#127 = DIRECTION ( 'NONE',  ( 4.275831445896958607E-31, 1.000000000000000000, 1.224646799147353207E-16 ) ) ;
#128 = CC_DESIGN_PERSON_AND_ORGANIZATION_ASSIGNMENT ( #269, #119, ( #317 ) ) ;
#129 = CARTESIAN_POINT ( 'NONE',  ( 8.572527594031428816E-17, -0.6999999999999988454, -8.572527594031486748E-17 ) ) ;
#130 = FACE_OUTER_BOUND ( 'NONE', #121, .T. ) ;
#131 = VECTOR ( 'NONE', #105, 1000.000000000000114 ) ;
#132 = APPROVAL_PERSON_ORGANIZATION ( #60, #298, #8 ) ;
#133 = CARTESIAN_POINT ( 'NONE',  ( 1.389609572859567202E-13, 0.6999999999999952927, 39.80000000000000426 ) ) ;
#134 = VERTEX_POINT ( 'NONE', #227 ) ;
#135 = CARTESIAN_POINT ( 'NONE',  ( 1.396592535537253342E-13, 0.4999999999999953371, 40.00000000000000000 ) ) ;
#136 = CC_DESIGN_DATE_AND_TIME_ASSIGNMENT ( #267, #143, ( #303 ) ) ;
#137 = ORIENTED_EDGE ( 'NONE', *, *, #171, .F. ) ;
#138 = APPLICATION_PROTOCOL_DEFINITION ( 'international standard', 'config_control_design', 1994, #149 ) ;
#139 = FACE_OUTER_BOUND ( 'NONE', #112, .T. ) ;
#140 = CONICAL_SURFACE ( 'NONE', #62, 0.5000000000000002220, 0.7853981633974512766 ) ;
#141 = EDGE_LOOP ( 'NONE', ( #120, #37, #95, #268 ) ) ;
#142 = LINE ( 'NONE', #307, #180 ) ;
#143 = DATE_TIME_ROLE ( 'creation_date' ) ;
#144 = ORIENTED_EDGE ( 'NONE', *, *, #98, .F. ) ;
#145 = EDGE_LOOP ( 'NONE', ( #3, #296, #33 ) ) ;
#146 = ORIENTED_EDGE ( 'NONE', *, *, #201, .T. ) ;
#147 = ADVANCED_FACE ( 'NONE', ( #328 ), #173, .F. ) ;
#148 = ORIENTED_EDGE ( 'NONE', *, *, #225, .F. ) ;
#149 = APPLICATION_CONTEXT ( 'configuration controlled 3d designs of mechanical parts and assemblies' ) ;
#150 = DIRECTION ( 'NONE',  ( -3.491481338843133355E-15, 1.224646799147353207E-16, -1.000000000000000000 ) ) ;
#151 = ADVANCED_FACE ( 'NONE', ( #304 ), #302, .T. ) ;
#152 = CARTESIAN_POINT ( 'NONE',  ( 6.284666409917640040E-14, 5.249159239316450995E-33, 18.00000000000000000 ) ) ;
#153 = DIRECTION ( 'NONE',  ( 0.0000000000000000000, 1.000000000000000000, 0.0000000000000000000 ) ) ;
#154 = DIRECTION ( 'NONE',  ( -3.491481338843133355E-15, 1.224646799147353207E-16, -1.000000000000000000 ) ) ;
#155 = AXIS2_PLACEMENT_3D ( 'NONE', #175, #97, #223 ) ;
#156 = DIRECTION ( 'NONE',  ( 0.0000000000000000000, 1.000000000000000000, 0.0000000000000000000 ) ) ;
#157 = DIRECTION ( 'NONE',  ( -3.491481338843133355E-15, 1.224646799147353207E-16, -1.000000000000000000 ) ) ;
#158 = DIRECTION ( 'NONE',  ( -3.491481338843133355E-15, 1.224646799147353207E-16, -1.000000000000000000 ) ) ;
#159 = CLOSED_SHELL ( 'NONE', ( #76, #21, #213, #279, #313 ) ) ;
#160 = EDGE_CURVE ( 'NONE', #163, #327, #85, .T. ) ;
#161 = DIRECTION ( 'NONE',  ( 5.502656983963568168E-31, 1.000000000000000000, 1.548860246407873937E-16 ) ) ;
#162 = COORDINATED_UNIVERSAL_TIME_OFFSET ( 1, 0, .AHEAD. ) ;
#163 = VERTEX_POINT ( 'NONE', #47 ) ;
#164 = DIRECTION ( 'NONE',  ( 3.491481338843133355E-15, -1.224646799147353207E-16, 1.000000000000000000 ) ) ;
#165 = SHAPE_DEFINITION_REPRESENTATION ( #43, #79 ) ;
#166 = DIRECTION ( 'NONE',  ( -3.491481338843133355E-15, 1.224646799147353207E-16, -1.000000000000000000 ) ) ;
#167 = PERSON_AND_ORGANIZATION ( #111, #87 ) ;
#168 = ORIENTED_EDGE ( 'NONE', *, *, #257, .F. ) ;
#169 = COORDINATED_UNIVERSAL_TIME_OFFSET ( 1, 0, .AHEAD. ) ;
#170 = ORIENTED_EDGE ( 'NONE', *, *, #18, .F. ) ;
#171 = EDGE_CURVE ( 'NONE', #320, #118, #315, .T. ) ;
#172 = CARTESIAN_POINT ( 'NONE',  ( 6.284666409917640040E-14, -2.204364238465235428E-15, 18.00000000000000000 ) ) ;
#173 = PLANE ( 'NONE',  #155 ) ;
#174 = DIRECTION ( 'NONE',  ( 0.0000000000000000000, 1.000000000000000000, 0.0000000000000000000 ) ) ;
#175 = CARTESIAN_POINT ( 'NONE',  ( 1.396592535537253342E-13, 3.749399456654572860E-33, 40.00000000000000000 ) ) ;
#176 = VECTOR ( 'NONE', #104, 1000.000000000000000 ) ;
#177 = CC_DESIGN_APPROVAL ( #298, ( #317 ) ) ;
#178 = FACE_OUTER_BOUND ( 'NONE', #189, .T. ) ;
#179 = EDGE_CURVE ( 'NONE', #335, #220, #67, .T. ) ;
#180 = VECTOR ( 'NONE', #77, 999.9999999999998863 ) ;
#181 = DIRECTION ( 'NONE',  ( 0.0000000000000000000, 0.0000000000000000000, 1.000000000000000000 ) ) ;
#182 = DIRECTION ( 'NONE',  ( -3.491481338843133355E-15, 1.224646799147353207E-16, -1.000000000000000000 ) ) ;
#183 = CC_DESIGN_PERSON_AND_ORGANIZATION_ASSIGNMENT ( #167, #89, ( #197 ) ) ;
#184 = CARTESIAN_POINT ( 'NONE',  ( 0.0000000000000000000, 0.0000000000000000000, 0.0000000000000000000 ) ) ;
#185 = DATE_AND_TIME ( #1, #23 ) ;
#186 = AXIS2_PLACEMENT_3D ( 'NONE', #332, #276, #101 ) ;
#187 = ORIENTED_EDGE ( 'NONE', *, *, #326, .T. ) ;
#188 = CALENDAR_DATE ( 2021, 2, 9 ) ;
#189 = EDGE_LOOP ( 'NONE', ( #234, #146 ) ) ;
#190 = ORIENTED_EDGE ( 'NONE', *, *, #18, .T. ) ;
#191 = APPROVAL_STATUS ( 'not_yet_approved' ) ;
#192 = ORIENTED_EDGE ( 'NONE', *, *, #254, .F. ) ;
#193 = CIRCLE ( 'NONE', #12, 0.6999999999999952927 ) ;
#194 = DATE_AND_TIME ( #36, #103 ) ;
#195 = ORIENTED_EDGE ( 'NONE', *, *, #275, .F. ) ;
#196 = FACE_OUTER_BOUND ( 'NONE', #325, .T. ) ;
#197 = PRODUCT ( '53701', '53701', '', ( #305 ) ) ;
#198 = DIRECTION ( 'NONE',  ( 0.0000000000000000000, 1.000000000000000000, 0.0000000000000000000 ) ) ;
#199 = CONICAL_SURFACE ( 'NONE', #243, 0.6999999999999952927, 1.029744258676649649 ) ;
#200 = FACE_OUTER_BOUND ( 'NONE', #59, .T. ) ;
#201 = EDGE_CURVE ( 'NONE', #220, #61, #56, .T. ) ;
#202 = CARTESIAN_POINT ( 'NONE',  ( 1.468525547006328513E-15, -5.150894236780614413E-17, 0.4206024333192940334 ) ) ;
#203 = DIRECTION ( 'NONE',  ( -3.491481338843133355E-15, 1.224646799147353207E-16, -1.000000000000000000 ) ) ;
#204 = CIRCLE ( 'NONE', #86, 0.7000000000000001776 ) ;
#205 = ADVANCED_FACE ( 'NONE', ( #178 ), #282, .F. ) ;
#206 = DIRECTION ( 'NONE',  ( -3.491481338843133355E-15, 1.224646799147353207E-16, -1.000000000000000000 ) ) ;
#207 = ADVANCED_FACE ( 'NONE', ( #272 ), #250, .T. ) ;
#208 = CIRCLE ( 'NONE', #4, 0.6999999999999975131 ) ;
#209 = CARTESIAN_POINT ( 'NONE',  ( 1.009895359685067184E-13, -0.7000000000000050626, 39.80000000000000426 ) ) ;
#210 = PERSON_AND_ORGANIZATION ( #111, #87 ) ;
#211 = CIRCLE ( 'NONE', #221, 0.6999999999999952927 ) ;
#212 = FACE_OUTER_BOUND ( 'NONE', #308, .T. ) ;
#213 = ADVANCED_FACE ( 'NONE', ( #200 ), #41, .T. ) ;
#214 = COORDINATED_UNIVERSAL_TIME_OFFSET ( 1, 0, .AHEAD. ) ;
#215 = DIRECTION ( 'NONE',  ( 0.0000000000000000000, 1.000000000000000000, 0.0000000000000000000 ) ) ;
#216 = SECURITY_CLASSIFICATION_LEVEL ( 'unclassified' ) ;
#217 = VERTEX_POINT ( 'NONE', #133 ) ;
#218 = PRODUCT_RELATED_PRODUCT_CATEGORY ( 'detail', '', ( #197 ) ) ;
#219 = PERSON_AND_ORGANIZATION ( #111, #87 ) ;
#220 = VERTEX_POINT ( 'NONE', #102 ) ;
#221 = AXIS2_PLACEMENT_3D ( 'NONE', #238, #107, #161 ) ;
#222 = ORIENTED_EDGE ( 'NONE', *, *, #82, .T. ) ;
#223 = DIRECTION ( 'NONE',  ( 4.275831445896958607E-31, 1.000000000000000000, 1.224646799147353207E-16 ) ) ;
#224 = DIRECTION ( 'NONE',  ( 3.491481338843133355E-15, -1.224646799147353207E-16, 1.000000000000000000 ) ) ;
#225 = EDGE_CURVE ( 'NONE', #327, #217, #51, .T. ) ;
#226 = DIRECTION ( 'NONE',  ( -3.491481338843133355E-15, 1.224646799147353207E-16, -1.000000000000000000 ) ) ;
#227 = CARTESIAN_POINT ( 'NONE',  ( 1.554250822946642998E-15, 0.6999999999999952927, 0.4206024333192941445 ) ) ;
#228 = EDGE_CURVE ( 'NONE', #291, #115, #232, .T. ) ;
#229 = DIRECTION ( 'NONE',  ( -3.491481338843133355E-15, 1.224646799147353207E-16, -1.000000000000000000 ) ) ;
#230 = AXIS2_PLACEMENT_3D ( 'NONE', #172, #157, #19 ) ;
#231 = CC_DESIGN_APPROVAL ( #7, ( #93 ) ) ;
#232 = LINE ( 'NONE', #334, #176 ) ;
#233 = CARTESIAN_POINT ( 'NONE',  ( 8.572527594031399234E-17, -0.6999999999999964029, -8.572527594031458399E-17 ) ) ;
#234 = ORIENTED_EDGE ( 'NONE', *, *, #50, .T. ) ;
#235 = CARTESIAN_POINT ( 'NONE',  ( 1.396592535537253342E-13, 0.4999999999999953371, 40.00000000000000000 ) ) ;
#236 = CIRCLE ( 'NONE', #16, 0.6999999999999975131 ) ;
#237 = AXIS2_PLACEMENT_3D ( 'NONE', #24, #181, #52 ) ;
#238 = CARTESIAN_POINT ( 'NONE',  ( 1.468525547006328513E-15, -5.150894236780614413E-17, 0.4206024333192940334 ) ) ;
#239 = DATE_TIME_ROLE ( 'classification_date' ) ;
#240 = APPROVAL_DATE_TIME ( #185, #7 ) ;
#241 = EDGE_LOOP ( 'NONE', ( #22, #266 ) ) ;
#242 = UNCERTAINTY_MEASURE_WITH_UNIT (LENGTH_MEASURE( 1.000000000000000082E-05 ), #78, 'distance_accuracy_value', 'NONE');
#243 = AXIS2_PLACEMENT_3D ( 'NONE', #66, #164, #11 ) ;
#244 = PERSON_AND_ORGANIZATION ( #111, #87 ) ;
#245 = ORIENTED_EDGE ( 'NONE', *, *, #179, .F. ) ;
#246 = ORIENTED_EDGE ( 'NONE', *, *, #32, .T. ) ;
#247 = EDGE_CURVE ( 'NONE', #217, #61, #283, .T. ) ;
#248 = FACE_OUTER_BOUND ( 'NONE', #145, .T. ) ;
#249 = ORIENTED_EDGE ( 'NONE', *, *, #247, .T. ) ;
#250 = CYLINDRICAL_SURFACE ( 'NONE', #299, 0.6999999999999988454 ) ;
#251 = CARTESIAN_POINT ( 'NONE',  ( 1.396592535537253342E-13, -4.898587196589413026E-15, 40.00000000000000000 ) ) ;
#252 = CARTESIAN_POINT ( 'NONE',  ( 1.389609572859567202E-13, -4.874094260606466312E-15, 39.80000000000000426 ) ) ;
#253 = DIRECTION ( 'NONE',  ( -3.491481338843133355E-15, 1.224646799147353207E-16, -1.000000000000000000 ) ) ;
#254 = EDGE_CURVE ( 'NONE', #115, #134, #211, .T. ) ;
#255 = CARTESIAN_POINT ( 'NONE',  ( 0.0000000000000000000, 0.0000000000000000000, 0.0000000000000000000 ) ) ;
#256 = VECTOR ( 'NONE', #182, 1000.000000000000000 ) ;
#257 = EDGE_CURVE ( 'NONE', #118, #134, #260, .T. ) ;
#258 =( NAMED_UNIT ( * ) SI_UNIT ( $, .STERADIAN. ) SOLID_ANGLE_UNIT ( ) );
#259 = AXIS2_PLACEMENT_3D ( 'NONE', #306, #311, #336 ) ;
#260 = LINE ( 'NONE', #109, #329 ) ;
#261 = CC_DESIGN_PERSON_AND_ORGANIZATION_ASSIGNMENT ( #219, #319, ( #93 ) ) ;
#262 = COORDINATED_UNIVERSAL_TIME_OFFSET ( 1, 0, .AHEAD. ) ;
#263 = ORIENTED_EDGE ( 'NONE', *, *, #228, .T. ) ;
#264 = ORIENTED_EDGE ( 'NONE', *, *, #326, .F. ) ;
#265 = VECTOR ( 'NONE', #158, 1000.000000000000000 ) ;
#266 = ORIENTED_EDGE ( 'NONE', *, *, #160, .F. ) ;
#267 = DATE_AND_TIME ( #188, #310 ) ;
#268 = ORIENTED_EDGE ( 'NONE', *, *, #247, .F. ) ;
#269 = PERSON_AND_ORGANIZATION ( #111, #87 ) ;
#270 = DIRECTION ( 'NONE',  ( 0.0000000000000000000, 1.000000000000000000, 0.0000000000000000000 ) ) ;
#271 = AXIS2_PLACEMENT_3D ( 'NONE', #71, #26, #54 ) ;
#272 = FACE_OUTER_BOUND ( 'NONE', #64, .T. ) ;
#273 = AXIS2_PLACEMENT_3D ( 'NONE', #318, #166, #215 ) ;
#274 = LOCAL_TIME ( 15, 37, 40.00000000000000000, #162 ) ;
#275 = EDGE_CURVE ( 'NONE', #291, #134, #142, .T. ) ;
#276 = DIRECTION ( 'NONE',  ( -3.491481338843133355E-15, 1.224646799147353207E-16, -1.000000000000000000 ) ) ;
#277 = DIRECTION ( 'NONE',  ( -2.382254525458708792E-15, -0.7071067811865495711, -0.7071067811865455743 ) ) ;
#278 = CARTESIAN_POINT ( 'NONE',  ( 6.284666409917640040E-14, 0.6999999999999952927, 18.00000000000000000 ) ) ;
#279 = ADVANCED_FACE ( 'NONE', ( #28 ), #284, .T. ) ;
#280 = VECTOR ( 'NONE', #277, 1000.000000000000114 ) ;
#281 = CC_DESIGN_SECURITY_CLASSIFICATION ( #93, ( #317 ) ) ;
#282 = PLANE ( 'NONE',  #126 ) ;
#283 = LINE ( 'NONE', #337, #256 ) ;
#284 = CYLINDRICAL_SURFACE ( 'NONE', #80, 0.6999999999999964029 ) ;
#285 = AXIS2_PLACEMENT_3D ( 'NONE', #255, #229, #46 ) ;
#286 =( NAMED_UNIT ( * ) PLANE_ANGLE_UNIT ( ) SI_UNIT ( $, .RADIAN. ) );
#287 = DIRECTION ( 'NONE',  ( 4.275831445896958607E-31, 1.000000000000000000, 1.224646799147353207E-16 ) ) ;
#288 = ORIENTED_EDGE ( 'NONE', *, *, #82, .F. ) ;
#289 = APPROVAL_STATUS ( 'not_yet_approved' ) ;
#290 = ORIENTED_EDGE ( 'NONE', *, *, #171, .T. ) ;
#291 = VERTEX_POINT ( 'NONE', #333 ) ;
#292 = CIRCLE ( 'NONE', #34, 0.5000000000000002220 ) ;
#293 = APPROVAL_STATUS ( 'not_yet_approved' ) ;
#294 = ORIENTED_EDGE ( 'NONE', *, *, #32, .F. ) ;
#295 = APPLICATION_PROTOCOL_DEFINITION ( 'international standard', 'config_control_design', 1994, #73 ) ;
#296 = ORIENTED_EDGE ( 'NONE', *, *, #275, .T. ) ;
#297 = CARTESIAN_POINT ( 'NONE',  ( 1.397204858936827144E-13, -0.5000000000000051070, 40.00000000000000000 ) ) ;
#298 = APPROVAL ( #289, 'UNSPECIFIED' ) ;
#299 = AXIS2_PLACEMENT_3D ( 'NONE', #122, #330, #99 ) ;
#300 = LINE ( 'NONE', #297, #280 ) ;
#301 =( GEOMETRIC_REPRESENTATION_CONTEXT ( 3 ) GLOBAL_UNCERTAINTY_ASSIGNED_CONTEXT ( ( #242 ) ) GLOBAL_UNIT_ASSIGNED_CONTEXT ( ( #78, #286, #258 ) ) REPRESENTATION_CONTEXT ( 'NONE', 'WORKASPACE' ) );
#302 = CYLINDRICAL_SURFACE ( 'NONE', #285, 0.6999999999999988454 ) ;
#303 = PRODUCT_DEFINITION ( 'UNKNOWN', '', #317, #114 ) ;
#304 = FACE_OUTER_BOUND ( 'NONE', #141, .T. ) ;
#305 = MECHANICAL_CONTEXT ( 'NONE', #149, 'mechanical' ) ;
#306 = CARTESIAN_POINT ( 'NONE',  ( 6.284666409917640040E-14, 5.249159239316450995E-33, 18.00000000000000000 ) ) ;
#307 = CARTESIAN_POINT ( 'NONE',  ( 1.554250822946642998E-15, 0.6999999999999952927, 0.4206024333192941445 ) ) ;
#308 = EDGE_LOOP ( 'NONE', ( #13, #222, #90, #148 ) ) ;
#309 = CONICAL_SURFACE ( 'NONE', #273, 0.5000000000000002220, 0.7853981633974512766 ) ;
#310 = LOCAL_TIME ( 15, 37, 40.00000000000000000, #262 ) ;
#311 = DIRECTION ( 'NONE',  ( 3.491481338843133355E-15, -1.224646799147353207E-16, 1.000000000000000000 ) ) ;
#312 = DIRECTION ( 'NONE',  ( -3.491481338843133355E-15, 1.224646799147353207E-16, -1.000000000000000000 ) ) ;
#313 = ADVANCED_FACE ( 'NONE', ( #139 ), #29, .T. ) ;
#314 = DATE_AND_TIME ( #30, #274 ) ;
#315 = CIRCLE ( 'NONE', #230, 0.6999999999999975131 ) ;
#316 = APPROVAL_PERSON_ORGANIZATION ( #84, #7, #63 ) ;
#317 = PRODUCT_DEFINITION_FORMATION_WITH_SPECIFIED_SOURCE ( 'ANY', '', #197, .NOT_KNOWN. ) ;
#318 = CARTESIAN_POINT ( 'NONE',  ( 1.396592535537253342E-13, -4.898587196589413026E-15, 40.00000000000000000 ) ) ;
#319 = PERSON_AND_ORGANIZATION_ROLE ( 'classification_officer' ) ;
#320 = VERTEX_POINT ( 'NONE', #55 ) ;
#321 = CALENDAR_DATE ( 2021, 2, 9 ) ;
#322 = ORIENTED_EDGE ( 'NONE', *, *, #201, .F. ) ;
#323 = VECTOR ( 'NONE', #69, 1000.000000000000000 ) ;
#324 = APPROVAL_PERSON_ORGANIZATION ( #210, #70, #10 ) ;
#325 = EDGE_LOOP ( 'NONE', ( #190, #187, #144, #168 ) ) ;
#326 = EDGE_CURVE ( 'NONE', #320, #115, #83, .T. ) ;
#327 = VERTEX_POINT ( 'NONE', #135 ) ;
#328 = FACE_OUTER_BOUND ( 'NONE', #241, .T. ) ;
#329 = VECTOR ( 'NONE', #206, 1000.000000000000000 ) ;
#330 = DIRECTION ( 'NONE',  ( -3.491481338843133355E-15, 1.224646799147353207E-16, -1.000000000000000000 ) ) ;
#331 = CARTESIAN_POINT ( 'NONE',  ( 6.284666409917640040E-14, -2.204364238465235428E-15, 18.00000000000000000 ) ) ;
#332 = CARTESIAN_POINT ( 'NONE',  ( 6.284666409917640040E-14, -2.204364238465235428E-15, 18.00000000000000000 ) ) ;
#333 = CARTESIAN_POINT ( 'NONE',  ( 0.0000000000000000000, 0.0000000000000000000, 0.0000000000000000000 ) ) ;
#334 = CARTESIAN_POINT ( 'NONE',  ( 1.468525547006328119E-15, -0.6999999999999952927, 0.4206024333192939224 ) ) ;
#335 = VERTEX_POINT ( 'NONE', #209 ) ;
#336 = DIRECTION ( 'NONE',  ( -4.275831445896958607E-31, -1.000000000000000000, -1.224646799147353207E-16 ) ) ;
#337 = CARTESIAN_POINT ( 'NONE',  ( 2.993082012127865682E-31, 0.6999999999999988454, 8.572527594031458399E-17 ) ) ;
ENDSEC;
END-ISO-10303-21;
