ISO-10303-21;
HEADER;
FILE_DESCRIPTION (( 'STEP AP203' ),
    '1' );
FILE_NAME ('53698.step',
    '2021-09-02T13:37:38',
    ( '' ),
    ( '' ),
    'SwSTEP 2.0',
    'SolidWorks 2019',
    '' );
FILE_SCHEMA (( 'CONFIG_CONTROL_DESIGN' ));
ENDSEC;

DATA;
#1 = ORIENTED_EDGE ( 'NONE', *, *, #41, .F. ) ;
#2 = CARTESIAN_POINT ( 'NONE',  ( 2.351707295243313746E-31, 0.5499999999999968248, 6.735557395310403073E-17 ) ) ;
#3 = CARTESIAN_POINT ( 'NONE',  ( 1.153841501219257061E-15, -4.047131186041908859E-17, 0.3304733404651593598 ) ) ;
#4 = DIRECTION ( 'NONE',  ( -3.491481338843133355E-15, 1.224646799147353207E-16, -1.000000000000000000 ) ) ;
#5 = AXIS2_PLACEMENT_3D ( 'NONE', #275, #253, #131 ) ;
#6 = VECTOR ( 'NONE', #246, 1000.000000000000000 ) ;
#7 = DIRECTION ( 'NONE',  ( -3.491481338843133355E-15, 1.224646799147353207E-16, -1.000000000000000000 ) ) ;
#8 = FACE_OUTER_BOUND ( 'NONE', #217, .T. ) ;
#9 = CARTESIAN_POINT ( 'NONE',  ( 1.257361908363229619E-13, -0.3500000000000046962, 36.00000000000000000 ) ) ;
#10 = DIRECTION ( 'NONE',  ( 0.0000000000000000000, 1.000000000000000000, 0.0000000000000000000 ) ) ;
#11 = DIRECTION ( 'NONE',  ( -3.491481338843133355E-15, 1.224646799147353207E-16, -1.000000000000000000 ) ) ;
#12 = AXIS2_PLACEMENT_3D ( 'NONE', #234, #97, #10 ) ;
#13 =( GEOMETRIC_REPRESENTATION_CONTEXT ( 3 ) GLOBAL_UNCERTAINTY_ASSIGNED_CONTEXT ( ( #299 ) ) GLOBAL_UNIT_ASSIGNED_CONTEXT ( ( #75, #195, #109 ) ) REPRESENTATION_CONTEXT ( 'NONE', 'WORKASPACE' ) );
#14 = EDGE_CURVE ( 'NONE', #287, #177, #67, .T. ) ;
#15 = CC_DESIGN_DATE_AND_TIME_ASSIGNMENT ( #71, #49, ( #28 ) ) ;
#16 = DATE_AND_TIME ( #173, #24 ) ;
#17 = AXIS2_PLACEMENT_3D ( 'NONE', #188, #295, #318 ) ;
#18 = AXIS2_PLACEMENT_3D ( 'NONE', #137, #7, #248 ) ;
#19 = DIRECTION ( 'NONE',  ( -3.491481338843133355E-15, 1.224646799147353207E-16, -1.000000000000000000 ) ) ;
#20 = ADVANCED_FACE ( 'NONE', ( #265 ), #183, .T. ) ;
#21 = EDGE_LOOP ( 'NONE', ( #235, #315 ) ) ;
#22 = DIRECTION ( 'NONE',  ( 4.275831445896958607E-31, 1.000000000000000000, 1.224646799147353207E-16 ) ) ;
#23 = VERTEX_POINT ( 'NONE', #289 ) ;
#24 = LOCAL_TIME ( 15, 37, 38.00000000000000000, #332 ) ;
#25 = ORIENTED_EDGE ( 'NONE', *, *, #86, .F. ) ;
#26 = CARTESIAN_POINT ( 'NONE',  ( 4.888073874380386697E-14, 4.124339402320065315E-33, 14.00000000000000000 ) ) ;
#27 = DIRECTION ( 'NONE',  ( 0.0000000000000000000, 1.000000000000000000, 0.0000000000000000000 ) ) ;
#28 = PRODUCT_DEFINITION ( 'UNKNOWN', '', #272, #161 ) ;
#29 = DIRECTION ( 'NONE',  ( 3.491481338843133355E-15, -1.224646799147353207E-16, 1.000000000000000000 ) ) ;
#30 = DATE_AND_TIME ( #219, #212 ) ;
#31 = LINE ( 'NONE', #302, #165 ) ;
#32 = AXIS2_PLACEMENT_3D ( 'NONE', #163, #293, #50 ) ;
#33 = CARTESIAN_POINT ( 'NONE',  ( 4.888073874380386697E-14, -1.714505518806294638E-15, 14.00000000000000000 ) ) ;
#34 = LINE ( 'NONE', #9, #124 ) ;
#35 = DIRECTION ( 'NONE',  ( -3.501690807976818416E-31, -1.000000000000000000, -9.856383386231931550E-17 ) ) ;
#36 = DIRECTION ( 'NONE',  ( 0.0000000000000000000, 1.000000000000000000, 0.0000000000000000000 ) ) ;
#37 = CARTESIAN_POINT ( 'NONE',  ( 4.888073874380386697E-14, -1.714505518806294638E-15, 14.00000000000000000 ) ) ;
#38 = APPLICATION_CONTEXT ( 'configuration controlled 3d designs of mechanical parts and assemblies' ) ;
#39 = AXIS2_PLACEMENT_3D ( 'NONE', #225, #191, #298 ) ;
#40 = DATE_AND_TIME ( #88, #136 ) ;
#41 = EDGE_CURVE ( 'NONE', #231, #236, #311, .T. ) ;
#42 = VERTEX_POINT ( 'NONE', #204 ) ;
#43 = CIRCLE ( 'NONE', #18, 0.5500000000000002665 ) ;
#44 = ORIENTED_EDGE ( 'NONE', *, *, #263, .F. ) ;
#45 = EDGE_LOOP ( 'NONE', ( #25, #69 ) ) ;
#46 = ORIENTED_EDGE ( 'NONE', *, *, #263, .T. ) ;
#47 = ORIENTED_EDGE ( 'NONE', *, *, #205, .T. ) ;
#48 = FACE_OUTER_BOUND ( 'NONE', #45, .T. ) ;
#49 = DATE_TIME_ROLE ( 'creation_date' ) ;
#50 = DIRECTION ( 'NONE',  ( 4.275831445896958607E-31, 1.000000000000000000, 1.224646799147353207E-16 ) ) ;
#51 = DIRECTION ( 'NONE',  ( 3.491481338843133355E-15, -1.224646799147353207E-16, 1.000000000000000000 ) ) ;
#52 = DIRECTION ( 'NONE',  ( 3.501690807976818416E-31, 1.000000000000000000, 9.856383386231931550E-17 ) ) ;
#53 = ADVANCED_FACE ( 'NONE', ( #48 ), #122, .T. ) ;
#54 = VERTEX_POINT ( 'NONE', #207 ) ;
#55 = DIRECTION ( 'NONE',  ( 0.0000000000000000000, 1.000000000000000000, 0.0000000000000000000 ) ) ;
#56 = CARTESIAN_POINT ( 'NONE',  ( 4.888073874380386697E-14, 0.5499999999999959366, 14.00000000000000000 ) ) ;
#57 = FACE_OUTER_BOUND ( 'NONE', #312, .T. ) ;
#58 = CARTESIAN_POINT ( 'NONE',  ( 0.0000000000000000000, 0.0000000000000000000, 0.0000000000000000000 ) ) ;
#59 = VECTOR ( 'NONE', #286, 1000.000000000000000 ) ;
#60 = ORGANIZATION ( 'UNSPECIFIED', 'UNSPECIFIED', '' ) ;
#61 = CONICAL_SURFACE ( 'NONE', #39, 0.5499999999999959366, 1.029744258676649649 ) ;
#62 = DIRECTION ( 'NONE',  ( -3.491481338843133355E-15, 1.224646799147353207E-16, -1.000000000000000000 ) ) ;
#63 = PERSON_AND_ORGANIZATION_ROLE ( 'creator' ) ;
#64 = ADVANCED_FACE ( 'NONE', ( #66 ), #258, .T. ) ;
#65 = EDGE_LOOP ( 'NONE', ( #182, #216, #68, #256 ) ) ;
#66 = FACE_OUTER_BOUND ( 'NONE', #210, .T. ) ;
#67 = LINE ( 'NONE', #180, #59 ) ;
#68 = ORIENTED_EDGE ( 'NONE', *, *, #115, .T. ) ;
#69 = ORIENTED_EDGE ( 'NONE', *, *, #119, .F. ) ;
#70 = CC_DESIGN_PERSON_AND_ORGANIZATION_ASSIGNMENT ( #178, #203, ( #272 ) ) ;
#71 = DATE_AND_TIME ( #159, #211 ) ;
#72 = CLOSED_SHELL ( 'NONE', ( #132, #64, #200, #20, #141, #198 ) ) ;
#73 = CARTESIAN_POINT ( 'NONE',  ( 1.153841501219256864E-15, -0.5499999999999959366, 0.3304733404651593043 ) ) ;
#74 = ADVANCED_FACE ( 'NONE', ( #304 ), #220, .T. ) ;
#75 =( LENGTH_UNIT ( ) NAMED_UNIT ( * ) SI_UNIT ( .MILLI., .METRE. ) );
#76 = LINE ( 'NONE', #194, #95 ) ;
#77 = ORIENTED_EDGE ( 'NONE', *, *, #305, .T. ) ;
#78 = DIRECTION ( 'NONE',  ( 1.000000000000000000, 0.0000000000000000000, 0.0000000000000000000 ) ) ;
#79 = PLANE ( 'NONE',  #32 ) ;
#80 = CARTESIAN_POINT ( 'NONE',  ( 0.0000000000000000000, 0.0000000000000000000, 0.0000000000000000000 ) ) ;
#81 = AXIS2_PLACEMENT_3D ( 'NONE', #227, #83, #52 ) ;
#82 = PERSON_AND_ORGANIZATION_ROLE ( 'creator' ) ;
#83 = DIRECTION ( 'NONE',  ( -3.491481338843133355E-15, 1.224646799147353207E-16, -1.000000000000000000 ) ) ;
#84 = CONICAL_SURFACE ( 'NONE', #134, 0.3500000000000003109, 0.7853981633974511656 ) ;
#85 = LOCAL_TIME ( 15, 37, 38.00000000000000000, #117 ) ;
#86 = EDGE_CURVE ( 'NONE', #231, #23, #330, .T. ) ;
#87 = COORDINATED_UNIVERSAL_TIME_OFFSET ( 1, 0, .AHEAD. ) ;
#88 = CALENDAR_DATE ( 2021, 2, 9 ) ;
#89 = APPROVAL_DATE_TIME ( #16, #103 ) ;
#90 = AXIS2_PLACEMENT_3D ( 'NONE', #80, #168, #226 ) ;
#91 = CC_DESIGN_APPROVAL ( #148, ( #28 ) ) ;
#92 = DIRECTION ( 'NONE',  ( -4.275831445896958607E-31, -1.000000000000000000, -1.224646799147353207E-16 ) ) ;
#93 = PERSON_AND_ORGANIZATION_ROLE ( 'classification_officer' ) ;
#94 = ORIENTED_EDGE ( 'NONE', *, *, #260, .F. ) ;
#95 = VECTOR ( 'NONE', #324, 1000.000000000000000 ) ;
#96 = CONICAL_SURFACE ( 'NONE', #199, 0.5499999999999959366, 1.029744258676649649 ) ;
#97 = DIRECTION ( 'NONE',  ( -3.491481338843133355E-15, 1.224646799147353207E-16, -1.000000000000000000 ) ) ;
#98 = ORIENTED_EDGE ( 'NONE', *, *, #14, .T. ) ;
#99 = EDGE_LOOP ( 'NONE', ( #100, #47, #77 ) ) ;
#100 = ORIENTED_EDGE ( 'NONE', *, *, #116, .F. ) ;
#101 = PERSON_AND_ORGANIZATION_ROLE ( 'design_owner' ) ;
#102 = CARTESIAN_POINT ( 'NONE',  ( 1.256933281983528008E-13, -4.408728476930470856E-15, 36.00000000000000000 ) ) ;
#103 = APPROVAL ( #232, 'UNSPECIFIED' ) ;
#104 = VECTOR ( 'NONE', #19, 1000.000000000000000 ) ;
#105 = DIRECTION ( 'NONE',  ( -3.491481338843133355E-15, 1.224646799147353207E-16, -1.000000000000000000 ) ) ;
#106 = CC_DESIGN_APPROVAL ( #103, ( #272 ) ) ;
#107 = PRODUCT_DEFINITION_SHAPE ( 'NONE', 'NONE',  #28 ) ;
#108 = FACE_OUTER_BOUND ( 'NONE', #288, .T. ) ;
#109 =( NAMED_UNIT ( * ) SI_UNIT ( $, .STERADIAN. ) SOLID_ANGLE_UNIT ( ) );
#110 = CARTESIAN_POINT ( 'NONE',  ( 4.888073874380386697E-14, -1.714505518806294638E-15, 14.00000000000000000 ) ) ;
#111 = CARTESIAN_POINT ( 'NONE',  ( 8.700524091114706682E-14, -0.5499999999999993783, 14.00000000000000000 ) ) ;
#112 = APPROVAL_PERSON_ORGANIZATION ( #266, #103, #147 ) ;
#113 = CC_DESIGN_PERSON_AND_ORGANIZATION_ASSIGNMENT ( #303, #101, ( #218 ) ) ;
#114 = CIRCLE ( 'NONE', #171, 0.5500000000000002665 ) ;
#115 = EDGE_CURVE ( 'NONE', #177, #42, #76, .T. ) ;
#116 = EDGE_CURVE ( 'NONE', #125, #189, #31, .T. ) ;
#117 = COORDINATED_UNIVERSAL_TIME_OFFSET ( 1, 0, .AHEAD. ) ;
#118 = CIRCLE ( 'NONE', #167, 0.5499999999999976019 ) ;
#119 = EDGE_CURVE ( 'NONE', #23, #231, #278, .T. ) ;
#120 = DIRECTION ( 'NONE',  ( 3.491481338843133355E-15, -1.224646799147353207E-16, 1.000000000000000000 ) ) ;
#121 = EDGE_LOOP ( 'NONE', ( #179, #314, #316, #1 ) ) ;
#122 = PLANE ( 'NONE',  #201 ) ;
#123 = ADVANCED_FACE ( 'NONE', ( #57 ), #222, .T. ) ;
#124 = VECTOR ( 'NONE', #172, 1000.000000000000114 ) ;
#125 = VERTEX_POINT ( 'NONE', #140 ) ;
#126 = ORIENTED_EDGE ( 'NONE', *, *, #174, .F. ) ;
#127 = CARTESIAN_POINT ( 'NONE',  ( 0.0000000000000000000, 0.0000000000000000000, 0.0000000000000000000 ) ) ;
#128 = ORIENTED_EDGE ( 'NONE', *, *, #174, .T. ) ;
#129 = EDGE_CURVE ( 'NONE', #287, #238, #221, .T. ) ;
#130 = CARTESIAN_POINT ( 'NONE',  ( 1.256933281983528008E-13, 0.3499999999999959255, 36.00000000000000000 ) ) ;
#131 = DIRECTION ( 'NONE',  ( 0.0000000000000000000, 1.000000000000000000, 0.0000000000000000000 ) ) ;
#132 = ADVANCED_FACE ( 'NONE', ( #108 ), #84, .T. ) ;
#133 = PERSON_AND_ORGANIZATION ( #154, #60 ) ;
#134 = AXIS2_PLACEMENT_3D ( 'NONE', #102, #11, #36 ) ;
#135 = CARTESIAN_POINT ( 'NONE',  ( 1.221197075172361313E-15, 0.5499999999999959366, 0.3304733404651594153 ) ) ;
#136 = LOCAL_TIME ( 15, 37, 38.00000000000000000, #87 ) ;
#137 = CARTESIAN_POINT ( 'NONE',  ( 1.249950319305841615E-13, -4.384235540947524141E-15, 35.79999999999999716 ) ) ;
#138 = PLANE ( 'NONE',  #336 ) ;
#139 = APPROVAL_ROLE ( '' ) ;
#140 = CARTESIAN_POINT ( 'NONE',  ( 0.0000000000000000000, 0.0000000000000000000, 0.0000000000000000000 ) ) ;
#141 = ADVANCED_FACE ( 'NONE', ( #322 ), #229, .T. ) ;
#142 = CC_DESIGN_DATE_AND_TIME_ASSIGNMENT ( #276, #150, ( #326 ) ) ;
#143 = DIRECTION ( 'NONE',  ( 4.275831445896958607E-31, 1.000000000000000000, 1.224646799147352961E-16 ) ) ;
#144 = CIRCLE ( 'NONE', #12, 0.3500000000000003109 ) ;
#145 = CIRCLE ( 'NONE', #81, 0.5499999999999959366 ) ;
#146 = CALENDAR_DATE ( 2021, 2, 9 ) ;
#147 = APPROVAL_ROLE ( '' ) ;
#148 = APPROVAL ( #187, 'UNSPECIFIED' ) ;
#149 = ORIENTED_EDGE ( 'NONE', *, *, #268, .F. ) ;
#150 = DATE_TIME_ROLE ( 'classification_date' ) ;
#151 = ORIENTED_EDGE ( 'NONE', *, *, #129, .T. ) ;
#152 = DIRECTION ( 'NONE',  ( -3.491481338843133355E-15, 1.224646799147353207E-16, -1.000000000000000000 ) ) ;
#153 = EDGE_LOOP ( 'NONE', ( #240, #44 ) ) ;
#154 = PERSON ( 'UNSPECIFIED', 'UNSPECIFIED', 'UNSPECIFIED', ('UNSPECIFIED'), ('UNSPECIFIED'), ('UNSPECIFIED') ) ;
#155 = VERTEX_POINT ( 'NONE', #111 ) ;
#156 = ORIENTED_EDGE ( 'NONE', *, *, #237, .T. ) ;
#157 = AXIS2_PLACEMENT_3D ( 'NONE', #190, #269, #27 ) ;
#158 = DIRECTION ( 'NONE',  ( -3.491481338843133355E-15, 1.224646799147353207E-16, -1.000000000000000000 ) ) ;
#159 = CALENDAR_DATE ( 2021, 2, 9 ) ;
#160 = FACE_OUTER_BOUND ( 'NONE', #21, .T. ) ;
#161 = DESIGN_CONTEXT ( 'detailed design', #213, 'design' ) ;
#162 = DIRECTION ( 'NONE',  ( 0.0000000000000000000, 0.0000000000000000000, 1.000000000000000000 ) ) ;
#163 = CARTESIAN_POINT ( 'NONE',  ( 1.256933281983528008E-13, 2.624579619658187523E-33, 36.00000000000000000 ) ) ;
#164 = CLOSED_SHELL ( 'NONE', ( #74, #333, #209, #123, #53 ) ) ;
#165 = VECTOR ( 'NONE', #273, 1000.000000000000000 ) ;
#166 = CARTESIAN_POINT ( 'NONE',  ( 1.221197075172361313E-15, 0.5499999999999959366, 0.3304733404651594153 ) ) ;
#167 = AXIS2_PLACEMENT_3D ( 'NONE', #33, #239, #55 ) ;
#168 = DIRECTION ( 'NONE',  ( -3.491481338843133355E-15, 1.224646799147353207E-16, -1.000000000000000000 ) ) ;
#169 = APPROVAL_DATE_TIME ( #40, #197 ) ;
#170 = DIRECTION ( 'NONE',  ( 0.0000000000000000000, 1.000000000000000000, 0.0000000000000000000 ) ) ;
#171 = AXIS2_PLACEMENT_3D ( 'NONE', #206, #152, #214 ) ;
#172 = DIRECTION ( 'NONE',  ( -2.382254525458708792E-15, -0.7071067811865493491, -0.7071067811865455743 ) ) ;
#173 = CALENDAR_DATE ( 2021, 2, 9 ) ;
#174 = EDGE_CURVE ( 'NONE', #189, #236, #145, .T. ) ;
#175 = CC_DESIGN_PERSON_AND_ORGANIZATION_ASSIGNMENT ( #283, #63, ( #272 ) ) ;
#176 = MANIFOLD_SOLID_BREP ( 'Corps-Déplacer/Copier1[2]', #164 ) ;
#177 = VERTEX_POINT ( 'NONE', #249 ) ;
#178 = PERSON_AND_ORGANIZATION ( #154, #60 ) ;
#179 = ORIENTED_EDGE ( 'NONE', *, *, #86, .T. ) ;
#180 = CARTESIAN_POINT ( 'NONE',  ( 1.256933281983528008E-13, 0.3499999999999959255, 36.00000000000000000 ) ) ;
#181 = MANIFOLD_SOLID_BREP ( 'Corps-Déplacer/Copier1[1]', #72 ) ;
#182 = ORIENTED_EDGE ( 'NONE', *, *, #244, .F. ) ;
#183 = CYLINDRICAL_SURFACE ( 'NONE', #252, 0.5499999999999989342 ) ;
#184 = AXIS2_PLACEMENT_3D ( 'NONE', #110, #105, #170 ) ;
#185 = DIRECTION ( 'NONE',  ( 3.501690807976818416E-31, 1.000000000000000000, 9.856383386231931550E-17 ) ) ;
#186 = FACE_OUTER_BOUND ( 'NONE', #153, .T. ) ;
#187 = APPROVAL_STATUS ( 'not_yet_approved' ) ;
#188 = CARTESIAN_POINT ( 'NONE',  ( 0.0000000000000000000, 0.0000000000000000000, 0.0000000000000000000 ) ) ;
#189 = VERTEX_POINT ( 'NONE', #73 ) ;
#190 = CARTESIAN_POINT ( 'NONE',  ( 4.888073874380386697E-14, -1.714505518806294638E-15, 14.00000000000000000 ) ) ;
#191 = DIRECTION ( 'NONE',  ( 3.491481338843133355E-15, -1.224646799147353207E-16, 1.000000000000000000 ) ) ;
#192 = VECTOR ( 'NONE', #247, 999.9999999999998863 ) ;
#193 = APPLICATION_PROTOCOL_DEFINITION ( 'international standard', 'config_control_design', 1994, #38 ) ;
#194 = CARTESIAN_POINT ( 'NONE',  ( 2.351707295243322504E-31, 0.5499999999999989342, 6.735557395310428958E-17 ) ) ;
#195 =( NAMED_UNIT ( * ) PLANE_ANGLE_UNIT ( ) SI_UNIT ( $, .RADIAN. ) );
#196 = CARTESIAN_POINT ( 'NONE',  ( 1.256933281983528008E-13, -4.408728476930470856E-15, 36.00000000000000000 ) ) ;
#197 = APPROVAL ( #281, 'UNSPECIFIED' ) ;
#198 = ADVANCED_FACE ( 'NONE', ( #186 ), #79, .F. ) ;
#199 = AXIS2_PLACEMENT_3D ( 'NONE', #3, #51, #35 ) ;
#200 = ADVANCED_FACE ( 'NONE', ( #160 ), #138, .F. ) ;
#201 = AXIS2_PLACEMENT_3D ( 'NONE', #26, #120, #92 ) ;
#202 = CIRCLE ( 'NONE', #313, 0.5499999999999959366 ) ;
#203 = PERSON_AND_ORGANIZATION_ROLE ( 'design_supplier' ) ;
#204 = CARTESIAN_POINT ( 'NONE',  ( 4.888073874380386697E-14, 0.5499999999999959366, 14.00000000000000000 ) ) ;
#205 = EDGE_CURVE ( 'NONE', #125, #236, #270, .T. ) ;
#206 = CARTESIAN_POINT ( 'NONE',  ( 1.249950319305841615E-13, -4.384235540947524141E-15, 35.79999999999999716 ) ) ;
#207 = CARTESIAN_POINT ( 'NONE',  ( 8.700524091114694060E-14, -0.5500000000000045963, 35.79999999999999716 ) ) ;
#208 = SECURITY_CLASSIFICATION_LEVEL ( 'unclassified' ) ;
#209 = ADVANCED_FACE ( 'NONE', ( #8 ), #61, .T. ) ;
#210 = EDGE_LOOP ( 'NONE', ( #259, #337, #321, #261 ) ) ;
#211 = LOCAL_TIME ( 15, 37, 38.00000000000000000, #317 ) ;
#212 = LOCAL_TIME ( 15, 37, 38.00000000000000000, #294 ) ;
#213 = APPLICATION_CONTEXT ( 'configuration controlled 3d designs of mechanical parts and assemblies' ) ;
#214 = DIRECTION ( 'NONE',  ( 0.0000000000000000000, 1.000000000000000000, 0.0000000000000000000 ) ) ;
#215 = ORIENTED_EDGE ( 'NONE', *, *, #116, .T. ) ;
#216 = ORIENTED_EDGE ( 'NONE', *, *, #260, .T. ) ;
#217 = EDGE_LOOP ( 'NONE', ( #285, #215, #128 ) ) ;
#218 = PRODUCT ( '53698', '53698', '', ( #323 ) ) ;
#219 = CALENDAR_DATE ( 2021, 2, 9 ) ;
#220 = CYLINDRICAL_SURFACE ( 'NONE', #290, 0.5499999999999968248 ) ;
#221 = CIRCLE ( 'NONE', #5, 0.3500000000000003109 ) ;
#222 = CYLINDRICAL_SURFACE ( 'NONE', #17, 0.5499999999999968248 ) ;
#223 = ORIENTED_EDGE ( 'NONE', *, *, #237, .F. ) ;
#224 = DIRECTION ( 'NONE',  ( -3.491481338843133355E-15, 1.224646799147353207E-16, -1.000000000000000000 ) ) ;
#225 = CARTESIAN_POINT ( 'NONE',  ( 1.153841501219257061E-15, -4.047131186041908859E-17, 0.3304733404651593598 ) ) ;
#226 = DIRECTION ( 'NONE',  ( 4.275831445896958607E-31, 1.000000000000000000, 1.224646799147353207E-16 ) ) ;
#227 = CARTESIAN_POINT ( 'NONE',  ( 1.153841501219257061E-15, -4.047131186041908859E-17, 0.3304733404651593598 ) ) ;
#228 = LINE ( 'NONE', #230, #300 ) ;
#229 = CONICAL_SURFACE ( 'NONE', #254, 0.3500000000000003109, 0.7853981633974511656 ) ;
#230 = CARTESIAN_POINT ( 'NONE',  ( 6.735557395310406771E-17, -0.5499999999999989342, -6.735557395310452377E-17 ) ) ;
#231 = VERTEX_POINT ( 'NONE', #56 ) ;
#232 = APPROVAL_STATUS ( 'not_yet_approved' ) ;
#233 = ORIENTED_EDGE ( 'NONE', *, *, #335, .F. ) ;
#234 = CARTESIAN_POINT ( 'NONE',  ( 1.256933281983528008E-13, -4.408728476930470856E-15, 36.00000000000000000 ) ) ;
#235 = ORIENTED_EDGE ( 'NONE', *, *, #325, .T. ) ;
#236 = VERTEX_POINT ( 'NONE', #166 ) ;
#237 = EDGE_CURVE ( 'NONE', #238, #54, #34, .T. ) ;
#238 = VERTEX_POINT ( 'NONE', #279 ) ;
#239 = DIRECTION ( 'NONE',  ( -3.491481338843133355E-15, 1.224646799147353207E-16, -1.000000000000000000 ) ) ;
#240 = ORIENTED_EDGE ( 'NONE', *, *, #129, .F. ) ;
#241 = PRODUCT_RELATED_PRODUCT_CATEGORY ( 'detail', '', ( #218 ) ) ;
#242 = LINE ( 'NONE', #301, #6 ) ;
#243 = DIRECTION ( 'NONE',  ( -4.275831445896958607E-31, -1.000000000000000000, -1.224646799147353207E-16 ) ) ;
#244 = EDGE_CURVE ( 'NONE', #54, #155, #228, .T. ) ;
#245 = AXIS2_PLACEMENT_3D ( 'NONE', #127, #162, #78 ) ;
#246 = DIRECTION ( 'NONE',  ( -3.491481338843133355E-15, 1.224646799147353207E-16, -1.000000000000000000 ) ) ;
#247 = DIRECTION ( 'NONE',  ( 1.903218546456022717E-15, 0.8571673007021097801, 0.5150380749100585964 ) ) ;
#248 = DIRECTION ( 'NONE',  ( 0.0000000000000000000, 1.000000000000000000, 0.0000000000000000000 ) ) ;
#249 = CARTESIAN_POINT ( 'NONE',  ( 1.249950319305841615E-13, 0.5499999999999959366, 35.79999999999999716 ) ) ;
#250 = APPROVAL_DATE_TIME ( #30, #148 ) ;
#251 = DIRECTION ( 'NONE',  ( -3.491481338843133355E-15, 1.224646799147353207E-16, -1.000000000000000000 ) ) ;
#252 = AXIS2_PLACEMENT_3D ( 'NONE', #284, #158, #22 ) ;
#253 = DIRECTION ( 'NONE',  ( -3.491481338843133355E-15, 1.224646799147353207E-16, -1.000000000000000000 ) ) ;
#254 = AXIS2_PLACEMENT_3D ( 'NONE', #196, #251, #320 ) ;
#255 = PERSON_AND_ORGANIZATION ( #154, #60 ) ;
#256 = ORIENTED_EDGE ( 'NONE', *, *, #271, .F. ) ;
#257 = APPROVAL_PERSON_ORGANIZATION ( #309, #197, #328 ) ;
#258 = CYLINDRICAL_SURFACE ( 'NONE', #90, 0.5499999999999989342 ) ;
#259 = ORIENTED_EDGE ( 'NONE', *, *, #335, .T. ) ;
#260 = EDGE_CURVE ( 'NONE', #54, #177, #114, .T. ) ;
#261 = ORIENTED_EDGE ( 'NONE', *, *, #115, .F. ) ;
#262 = CC_DESIGN_APPROVAL ( #197, ( #326 ) ) ;
#263 = EDGE_CURVE ( 'NONE', #238, #287, #144, .T. ) ;
#264 = CARTESIAN_POINT ( 'NONE',  ( 1.153841501219257061E-15, -4.047131186041908859E-17, 0.3304733404651593598 ) ) ;
#265 = FACE_OUTER_BOUND ( 'NONE', #65, .T. ) ;
#266 = PERSON_AND_ORGANIZATION ( #154, #60 ) ;
#267 = CARTESIAN_POINT ( 'NONE',  ( 4.888073874380386697E-14, 4.124339402320065315E-33, 14.00000000000000000 ) ) ;
#268 = EDGE_CURVE ( 'NONE', #23, #189, #242, .T. ) ;
#269 = DIRECTION ( 'NONE',  ( -3.491481338843133355E-15, 1.224646799147353207E-16, -1.000000000000000000 ) ) ;
#270 = LINE ( 'NONE', #135, #192 ) ;
#271 = EDGE_CURVE ( 'NONE', #155, #42, #280, .T. ) ;
#272 = PRODUCT_DEFINITION_FORMATION_WITH_SPECIFIED_SOURCE ( 'ANY', '', #218, .NOT_KNOWN. ) ;
#273 = DIRECTION ( 'NONE',  ( 1.798245827342160317E-15, -0.8571673007021098911, 0.5150380749100582634 ) ) ;
#274 = PERSON_AND_ORGANIZATION ( #154, #60 ) ;
#275 = CARTESIAN_POINT ( 'NONE',  ( 1.256933281983528008E-13, -4.408728476930470856E-15, 36.00000000000000000 ) ) ;
#276 = DATE_AND_TIME ( #146, #85 ) ;
#277 = DIRECTION ( 'NONE',  ( 0.0000000000000000000, 1.000000000000000000, 0.0000000000000000000 ) ) ;
#278 = CIRCLE ( 'NONE', #319, 0.5499999999999976019 ) ;
#279 = CARTESIAN_POINT ( 'NONE',  ( 1.253992891704301258E-13, -0.3500000000000046962, 36.00000000000000000 ) ) ;
#280 = CIRCLE ( 'NONE', #157, 0.5499999999999976019 ) ;
#281 = APPROVAL_STATUS ( 'not_yet_approved' ) ;
#282 = CC_DESIGN_PERSON_AND_ORGANIZATION_ASSIGNMENT ( #255, #93, ( #326 ) ) ;
#283 = PERSON_AND_ORGANIZATION ( #154, #60 ) ;
#284 = CARTESIAN_POINT ( 'NONE',  ( 0.0000000000000000000, 0.0000000000000000000, 0.0000000000000000000 ) ) ;
#285 = ORIENTED_EDGE ( 'NONE', *, *, #205, .F. ) ;
#286 = DIRECTION ( 'NONE',  ( -2.468850131082257849E-15, 0.7071067811865496822, -0.7071067811865453523 ) ) ;
#287 = VERTEX_POINT ( 'NONE', #130 ) ;
#288 = EDGE_LOOP ( 'NONE', ( #151, #156, #233, #296 ) ) ;
#289 = CARTESIAN_POINT ( 'NONE',  ( 2.508464569646459231E-14, -0.5499999999999993783, 14.00000000000000000 ) ) ;
#290 = AXIS2_PLACEMENT_3D ( 'NONE', #58, #4, #143 ) ;
#291 = CC_DESIGN_SECURITY_CLASSIFICATION ( #326, ( #272 ) ) ;
#292 = APPLICATION_PROTOCOL_DEFINITION ( 'international standard', 'config_control_design', 1994, #213 ) ;
#293 = DIRECTION ( 'NONE',  ( -3.491481338843133355E-15, 1.224646799147353207E-16, -1.000000000000000000 ) ) ;
#294 = COORDINATED_UNIVERSAL_TIME_OFFSET ( 1, 0, .AHEAD. ) ;
#295 = DIRECTION ( 'NONE',  ( -3.491481338843133355E-15, 1.224646799147353207E-16, -1.000000000000000000 ) ) ;
#296 = ORIENTED_EDGE ( 'NONE', *, *, #14, .F. ) ;
#297 = FACE_OUTER_BOUND ( 'NONE', #99, .T. ) ;
#298 = DIRECTION ( 'NONE',  ( -3.501690807976818416E-31, -1.000000000000000000, -9.856383386231931550E-17 ) ) ;
#299 = UNCERTAINTY_MEASURE_WITH_UNIT (LENGTH_MEASURE( 1.000000000000000082E-05 ), #75, 'distance_accuracy_value', 'NONE');
#300 = VECTOR ( 'NONE', #62, 1000.000000000000000 ) ;
#301 = CARTESIAN_POINT ( 'NONE',  ( 6.735557395310379654E-17, -0.5499999999999968248, -6.735557395310425260E-17 ) ) ;
#302 = CARTESIAN_POINT ( 'NONE',  ( 1.153841501219256864E-15, -0.5499999999999959366, 0.3304733404651593043 ) ) ;
#303 = PERSON_AND_ORGANIZATION ( #154, #60 ) ;
#304 = FACE_OUTER_BOUND ( 'NONE', #121, .T. ) ;
#305 = EDGE_CURVE ( 'NONE', #236, #189, #202, .T. ) ;
#306 = APPROVAL_PERSON_ORGANIZATION ( #274, #148, #139 ) ;
#307 = SHAPE_DEFINITION_REPRESENTATION ( #107, #329 ) ;
#308 = ORIENTED_EDGE ( 'NONE', *, *, #41, .T. ) ;
#309 = PERSON_AND_ORGANIZATION ( #154, #60 ) ;
#310 = CC_DESIGN_PERSON_AND_ORGANIZATION_ASSIGNMENT ( #133, #82, ( #28 ) ) ;
#311 = LINE ( 'NONE', #2, #104 ) ;
#312 = EDGE_LOOP ( 'NONE', ( #149, #331, #308, #126 ) ) ;
#313 = AXIS2_PLACEMENT_3D ( 'NONE', #264, #224, #185 ) ;
#314 = ORIENTED_EDGE ( 'NONE', *, *, #268, .T. ) ;
#315 = ORIENTED_EDGE ( 'NONE', *, *, #271, .T. ) ;
#316 = ORIENTED_EDGE ( 'NONE', *, *, #305, .F. ) ;
#317 = COORDINATED_UNIVERSAL_TIME_OFFSET ( 1, 0, .AHEAD. ) ;
#318 = DIRECTION ( 'NONE',  ( 4.275831445896958607E-31, 1.000000000000000000, 1.224646799147352961E-16 ) ) ;
#319 = AXIS2_PLACEMENT_3D ( 'NONE', #37, #327, #277 ) ;
#320 = DIRECTION ( 'NONE',  ( 0.0000000000000000000, 1.000000000000000000, 0.0000000000000000000 ) ) ;
#321 = ORIENTED_EDGE ( 'NONE', *, *, #325, .F. ) ;
#322 = FACE_OUTER_BOUND ( 'NONE', #334, .T. ) ;
#323 = MECHANICAL_CONTEXT ( 'NONE', #38, 'mechanical' ) ;
#324 = DIRECTION ( 'NONE',  ( -3.491481338843133355E-15, 1.224646799147353207E-16, -1.000000000000000000 ) ) ;
#325 = EDGE_CURVE ( 'NONE', #42, #155, #118, .T. ) ;
#326 = SECURITY_CLASSIFICATION ( '', '', #208 ) ;
#327 = DIRECTION ( 'NONE',  ( -3.491481338843133355E-15, 1.224646799147353207E-16, -1.000000000000000000 ) ) ;
#328 = APPROVAL_ROLE ( '' ) ;
#329 = ADVANCED_BREP_SHAPE_REPRESENTATION ( '53698', ( #181, #176, #245 ), #13 ) ;
#330 = CIRCLE ( 'NONE', #184, 0.5499999999999976019 ) ;
#331 = ORIENTED_EDGE ( 'NONE', *, *, #119, .T. ) ;
#332 = COORDINATED_UNIVERSAL_TIME_OFFSET ( 1, 0, .AHEAD. ) ;
#333 = ADVANCED_FACE ( 'NONE', ( #297 ), #96, .T. ) ;
#334 = EDGE_LOOP ( 'NONE', ( #223, #46, #98, #94 ) ) ;
#335 = EDGE_CURVE ( 'NONE', #177, #54, #43, .T. ) ;
#336 = AXIS2_PLACEMENT_3D ( 'NONE', #267, #29, #243 ) ;
#337 = ORIENTED_EDGE ( 'NONE', *, *, #244, .T. ) ;
ENDSEC;
END-ISO-10303-21;
