ISO-10303-21;
HEADER;
FILE_DESCRIPTION (( 'STEP AP203' ),
    '1' );
FILE_NAME ('53613.step',
    '2021-10-06T09:23:02',
    ( '' ),
    ( '' ),
    'SwSTEP 2.0',
    'SolidWorks 2019',
    '' );
FILE_SCHEMA (( 'CONFIG_CONTROL_DESIGN' ));
ENDSEC;

DATA;
#1 = EDGE_LOOP ( 'NONE', ( #16 ) ) ;
#2 = EDGE_LOOP ( 'NONE', ( #34 ) ) ;
#3 = ADVANCED_FACE ( 'NONE', ( #179 ), #67, .F. ) ;
#4 = APPLICATION_CONTEXT ( 'configuration controlled 3d designs of mechanical parts and assemblies' ) ;
#5 = AXIS2_PLACEMENT_3D ( 'NONE', #124, #59, #57 ) ;
#6 = CC_DESIGN_DATE_AND_TIME_ASSIGNMENT ( #56, #100, ( #126 ) ) ;
#7 = PERSON_AND_ORGANIZATION ( #74, #178 ) ;
#8 = PERSON_AND_ORGANIZATION ( #74, #178 ) ;
#9 = DIRECTION ( 'NONE',  ( 0.0000000000000000000, 1.000000000000000000, 0.0000000000000000000 ) ) ;
#10 = VERTEX_POINT ( 'NONE', #28 ) ;
#11 = ADVANCED_FACE ( 'NONE', ( #147, #203 ), #52, .T. ) ;
#12 = CARTESIAN_POINT ( 'NONE',  ( 3.142333204958820020E-14, 0.9999999999999954481, 9.000000000000000000 ) ) ;
#13 = CARTESIAN_POINT ( 'NONE',  ( 0.0000000000000000000, 0.0000000000000000000, 0.0000000000000000000 ) ) ;
#14 = PERSON_AND_ORGANIZATION ( #74, #178 ) ;
#15 = ORIENTED_EDGE ( 'NONE', *, *, #96, .F. ) ;
#16 = ORIENTED_EDGE ( 'NONE', *, *, #120, .T. ) ;
#17 = AXIS2_PLACEMENT_3D ( 'NONE', #131, #191, #79 ) ;
#18 = LOCAL_TIME ( 11, 23, 2.000000000000000000, #40 ) ;
#19 = APPROVAL_ROLE ( '' ) ;
#20 = CARTESIAN_POINT ( 'NONE',  ( 2.015807690851651802E-15, -7.070501591499427093E-17, 0.5773502691896297279 ) ) ;
#21 = EDGE_CURVE ( 'NONE', #106, #106, #35, .T. ) ;
#22 = DESIGN_CONTEXT ( 'detailed design', #4, 'design' ) ;
#23 = FACE_OUTER_BOUND ( 'NONE', #114, .T. ) ;
#24 = AXIS2_PLACEMENT_3D ( 'NONE', #193, #136, #117 ) ;
#25 = APPROVAL_ROLE ( '' ) ;
#26 = FACE_OUTER_BOUND ( 'NONE', #1, .T. ) ;
#27 = DIRECTION ( 'NONE',  ( -3.491481338843133355E-15, 1.224646799147353207E-16, -1.000000000000000000 ) ) ;
#28 = CARTESIAN_POINT ( 'NONE',  ( 2.015807690851652196E-15, 0.9999999999999954481, 0.5773502691896298389 ) ) ;
#29 = PERSON_AND_ORGANIZATION ( #74, #178 ) ;
#30 = AXIS2_PLACEMENT_3D ( 'NONE', #60, #123, #182 ) ;
#31 = APPROVAL_STATUS ( 'not_yet_approved' ) ;
#32 = CONICAL_SURFACE ( 'NONE', #46, 0.8000000000000001554, 0.7853981633974510546 ) ;
#33 = ORIENTED_EDGE ( 'NONE', *, *, #21, .T. ) ;
#34 = ORIENTED_EDGE ( 'NONE', *, *, #96, .T. ) ;
#35 = CIRCLE ( 'NONE', #42, 0.9999999999999965583 ) ;
#36 = CC_DESIGN_APPROVAL ( #141, ( #126 ) ) ;
#37 = DATE_AND_TIME ( #153, #199 ) ;
#38 = PRODUCT ( '53613', '53613', '', ( #47 ) ) ;
#39 = PERSON_AND_ORGANIZATION_ROLE ( 'design_supplier' ) ;
#40 = COORDINATED_UNIVERSAL_TIME_OFFSET ( 1, 0, .AHEAD. ) ;
#41 = DIRECTION ( 'NONE',  ( -3.491481338843133355E-15, 1.224646799147353207E-16, -1.000000000000000000 ) ) ;
#42 = AXIS2_PLACEMENT_3D ( 'NONE', #71, #102, #160 ) ;
#43 = CC_DESIGN_PERSON_AND_ORGANIZATION_ASSIGNMENT ( #7, #83, ( #126 ) ) ;
#44 =( NAMED_UNIT ( * ) SI_UNIT ( $, .STERADIAN. ) SOLID_ANGLE_UNIT ( ) );
#45 = FACE_OUTER_BOUND ( 'NONE', #113, .T. ) ;
#46 = AXIS2_PLACEMENT_3D ( 'NONE', #183, #41, #119 ) ;
#47 = MECHANICAL_CONTEXT ( 'NONE', #170, 'mechanical' ) ;
#48 = PERSON_AND_ORGANIZATION_ROLE ( 'creator' ) ;
#49 = CARTESIAN_POINT ( 'NONE',  ( 0.0000000000000000000, 0.0000000000000000000, 0.0000000000000000000 ) ) ;
#50 = AXIS2_PLACEMENT_3D ( 'NONE', #125, #27, #9 ) ;
#51 = ADVANCED_BREP_SHAPE_REPRESENTATION ( '53613', ( #155, #150, #154 ), #135 ) ;
#52 = CYLINDRICAL_SURFACE ( 'NONE', #93, 0.9999999999999961142 ) ;
#53 = EDGE_LOOP ( 'NONE', ( #15 ) ) ;
#54 = PERSON_AND_ORGANIZATION_ROLE ( 'creator' ) ;
#55 = UNCERTAINTY_MEASURE_WITH_UNIT (LENGTH_MEASURE( 1.000000000000000082E-05 ), #195, 'distance_accuracy_value', 'NONE');
#56 = DATE_AND_TIME ( #115, #85 ) ;
#57 = DIRECTION ( 'NONE',  ( 0.0000000000000000000, 1.000000000000000000, 0.0000000000000000000 ) ) ;
#58 = CARTESIAN_POINT ( 'NONE',  ( 3.142333204958820020E-14, 7.498798913309246986E-33, 9.000000000000000000 ) ) ;
#59 = DIRECTION ( 'NONE',  ( -3.491481338843133355E-15, 1.224646799147353207E-16, -1.000000000000000000 ) ) ;
#60 = CARTESIAN_POINT ( 'NONE',  ( 3.142333204958820020E-14, 7.498798913309246986E-33, 9.000000000000000000 ) ) ;
#61 = DIRECTION ( 'NONE',  ( 0.0000000000000000000, 1.000000000000000000, 0.0000000000000000000 ) ) ;
#62 = DIRECTION ( 'NONE',  ( -3.491481338843133355E-15, 1.224646799147353207E-16, -1.000000000000000000 ) ) ;
#63 = PERSON_AND_ORGANIZATION_ROLE ( 'design_owner' ) ;
#64 = DIRECTION ( 'NONE',  ( -3.491481338843133355E-15, 1.224646799147353207E-16, -1.000000000000000000 ) ) ;
#65 = PRODUCT_DEFINITION_SHAPE ( 'NONE', 'NONE',  #180 ) ;
#66 = EDGE_LOOP ( 'NONE', ( #33 ) ) ;
#67 = PLANE ( 'NONE',  #17 ) ;
#68 = CC_DESIGN_PERSON_AND_ORGANIZATION_ASSIGNMENT ( #70, #54, ( #122 ) ) ;
#69 = ORIENTED_EDGE ( 'NONE', *, *, #175, .T. ) ;
#70 = PERSON_AND_ORGANIZATION ( #74, #178 ) ;
#71 = CARTESIAN_POINT ( 'NONE',  ( 3.142333204958820020E-14, -1.102182119232617714E-15, 9.000000000000000000 ) ) ;
#72 = APPROVAL_STATUS ( 'not_yet_approved' ) ;
#73 = CALENDAR_DATE ( 2021, 6, 10 ) ;
#74 = PERSON ( 'UNSPECIFIED', 'UNSPECIFIED', 'UNSPECIFIED', ('UNSPECIFIED'), ('UNSPECIFIED'), ('UNSPECIFIED') ) ;
#75 = DIRECTION ( 'NONE',  ( 4.275831445896958607E-31, 1.000000000000000000, 1.224646799147353207E-16 ) ) ;
#76 = DIRECTION ( 'NONE',  ( 1.000000000000000000, 0.0000000000000000000, 0.0000000000000000000 ) ) ;
#77 = DATE_AND_TIME ( #91, #184 ) ;
#78 = PRODUCT_RELATED_PRODUCT_CATEGORY ( 'detail', '', ( #38 ) ) ;
#79 = DIRECTION ( 'NONE',  ( 4.275831445896958607E-31, 1.000000000000000000, 1.224646799147353207E-16 ) ) ;
#80 = CIRCLE ( 'NONE', #148, 0.9999999999999954481 ) ;
#81 = EDGE_LOOP ( 'NONE', ( #95 ) ) ;
#82 = DIRECTION ( 'NONE',  ( 3.851859888774489222E-31, 1.000000000000000000, 1.084202172485509364E-16 ) ) ;
#83 = PERSON_AND_ORGANIZATION_ROLE ( 'classification_officer' ) ;
#84 = LOCAL_TIME ( 11, 23, 2.000000000000000000, #146 ) ;
#85 = LOCAL_TIME ( 11, 23, 2.000000000000000000, #133 ) ;
#86 = COORDINATED_UNIVERSAL_TIME_OFFSET ( 1, 0, .AHEAD. ) ;
#87 = CARTESIAN_POINT ( 'NONE',  ( 1.326762908760390423E-13, 0.7999999999999954925, 38.00000000000000000 ) ) ;
#88 = AXIS2_PLACEMENT_3D ( 'NONE', #198, #62, #61 ) ;
#89 = PERSON_AND_ORGANIZATION ( #74, #178 ) ;
#90 = CLOSED_SHELL ( 'NONE', ( #92, #190, #168, #3 ) ) ;
#91 = CALENDAR_DATE ( 2021, 6, 10 ) ;
#92 = ADVANCED_FACE ( 'NONE', ( #26 ), #140, .F. ) ;
#93 = AXIS2_PLACEMENT_3D ( 'NONE', #49, #64, #189 ) ;
#94 = AXIS2_PLACEMENT_3D ( 'NONE', #118, #197, #75 ) ;
#95 = ORIENTED_EDGE ( 'NONE', *, *, #175, .F. ) ;
#96 = EDGE_CURVE ( 'NONE', #10, #10, #80, .T. ) ;
#97 = DATE_TIME_ROLE ( 'creation_date' ) ;
#98 = EDGE_LOOP ( 'NONE', ( #151 ) ) ;
#99 = DIRECTION ( 'NONE',  ( -3.491481338843133355E-15, 1.224646799147353207E-16, -1.000000000000000000 ) ) ;
#100 = DATE_TIME_ROLE ( 'classification_date' ) ;
#101 = CC_DESIGN_DATE_AND_TIME_ASSIGNMENT ( #77, #97, ( #180 ) ) ;
#102 = DIRECTION ( 'NONE',  ( -3.491481338843133355E-15, 1.224646799147353207E-16, -1.000000000000000000 ) ) ;
#103 = VERTEX_POINT ( 'NONE', #201 ) ;
#104 = ADVANCED_FACE ( 'NONE', ( #134 ), #129, .T. ) ;
#105 = VERTEX_POINT ( 'NONE', #87 ) ;
#106 = VERTEX_POINT ( 'NONE', #12 ) ;
#107 = APPLICATION_PROTOCOL_DEFINITION ( 'international standard', 'config_control_design', 1994, #4 ) ;
#108 = CIRCLE ( 'NONE', #88, 0.9999999999999965583 ) ;
#109 = APPROVAL_PERSON_ORGANIZATION ( #8, #141, #19 ) ;
#110 = ORIENTED_EDGE ( 'NONE', *, *, #120, .F. ) ;
#111 = ADVANCED_FACE ( 'NONE', ( #156 ), #196, .T. ) ;
#112 = CC_DESIGN_APPROVAL ( #145, ( #122 ) ) ;
#113 = EDGE_LOOP ( 'NONE', ( #130 ) ) ;
#114 = EDGE_LOOP ( 'NONE', ( #110 ) ) ;
#115 = CALENDAR_DATE ( 2021, 6, 10 ) ;
#116 = CIRCLE ( 'NONE', #5, 0.8000000000000001554 ) ;
#117 = DIRECTION ( 'NONE',  ( -3.851859888774489222E-31, -1.000000000000000000, -1.084202172485509364E-16 ) ) ;
#118 = CARTESIAN_POINT ( 'NONE',  ( 0.0000000000000000000, 0.0000000000000000000, 0.0000000000000000000 ) ) ;
#119 = DIRECTION ( 'NONE',  ( 0.0000000000000000000, 1.000000000000000000, 0.0000000000000000000 ) ) ;
#120 = EDGE_CURVE ( 'NONE', #143, #143, #108, .T. ) ;
#121 = CYLINDRICAL_SURFACE ( 'NONE', #94, 0.9999999999999983347 ) ;
#122 = PRODUCT_DEFINITION_FORMATION_WITH_SPECIFIED_SOURCE ( 'ANY', '', #38, .NOT_KNOWN. ) ;
#123 = DIRECTION ( 'NONE',  ( 3.491481338843133355E-15, -1.224646799147353207E-16, 1.000000000000000000 ) ) ;
#124 = CARTESIAN_POINT ( 'NONE',  ( 1.326762908760390423E-13, -4.653657836759941941E-15, 38.00000000000000000 ) ) ;
#125 = CARTESIAN_POINT ( 'NONE',  ( 1.319779946082704535E-13, -4.629164900776995227E-15, 37.79999999999999716 ) ) ;
#126 = SECURITY_CLASSIFICATION ( '', '', #152 ) ;
#127 = CC_DESIGN_PERSON_AND_ORGANIZATION_ASSIGNMENT ( #169, #39, ( #122 ) ) ;
#128 = DATE_AND_TIME ( #163, #84 ) ;
#129 = CONICAL_SURFACE ( 'NONE', #24, 0.9999999999999954481, 1.047197551196592746 ) ;
#130 = ORIENTED_EDGE ( 'NONE', *, *, #139, .F. ) ;
#131 = CARTESIAN_POINT ( 'NONE',  ( 1.326762908760390423E-13, 5.999039130647361324E-33, 38.00000000000000000 ) ) ;
#132 = EDGE_LOOP ( 'NONE', ( #167 ) ) ;
#133 = COORDINATED_UNIVERSAL_TIME_OFFSET ( 1, 0, .AHEAD. ) ;
#134 = FACE_OUTER_BOUND ( 'NONE', #2, .T. ) ;
#135 =( GEOMETRIC_REPRESENTATION_CONTEXT ( 3 ) GLOBAL_UNCERTAINTY_ASSIGNED_CONTEXT ( ( #55 ) ) GLOBAL_UNIT_ASSIGNED_CONTEXT ( ( #195, #158, #44 ) ) REPRESENTATION_CONTEXT ( 'NONE', 'WORKASPACE' ) );
#136 = DIRECTION ( 'NONE',  ( 3.491481338843133355E-15, -1.224646799147353207E-16, 1.000000000000000000 ) ) ;
#137 = DIRECTION ( 'NONE',  ( -4.275831445896958607E-31, -1.000000000000000000, -1.224646799147353207E-16 ) ) ;
#138 = FACE_OUTER_BOUND ( 'NONE', #98, .T. ) ;
#139 = EDGE_CURVE ( 'NONE', #103, #103, #186, .T. ) ;
#140 = PLANE ( 'NONE',  #30 ) ;
#141 = APPROVAL ( #72, 'UNSPECIFIED' ) ;
#142 = CC_DESIGN_APPROVAL ( #162, ( #180 ) ) ;
#143 = VERTEX_POINT ( 'NONE', #185 ) ;
#144 = CC_DESIGN_PERSON_AND_ORGANIZATION_ASSIGNMENT ( #14, #48, ( #180 ) ) ;
#145 = APPROVAL ( #171, 'UNSPECIFIED' ) ;
#146 = COORDINATED_UNIVERSAL_TIME_OFFSET ( 1, 0, .AHEAD. ) ;
#147 = FACE_OUTER_BOUND ( 'NONE', #53, .T. ) ;
#148 = AXIS2_PLACEMENT_3D ( 'NONE', #20, #99, #82 ) ;
#149 = APPROVAL_PERSON_ORGANIZATION ( #172, #145, #25 ) ;
#150 = MANIFOLD_SOLID_BREP ( 'Corps-Déplacer/Copier1[2]', #174 ) ;
#151 = ORIENTED_EDGE ( 'NONE', *, *, #139, .T. ) ;
#152 = SECURITY_CLASSIFICATION_LEVEL ( 'unclassified' ) ;
#153 = CALENDAR_DATE ( 2021, 6, 10 ) ;
#154 = AXIS2_PLACEMENT_3D ( 'NONE', #13, #202, #76 ) ;
#155 = MANIFOLD_SOLID_BREP ( 'Corps-Déplacer/Copier1[1]', #90 ) ;
#156 = FACE_OUTER_BOUND ( 'NONE', #132, .T. ) ;
#157 = SHAPE_DEFINITION_REPRESENTATION ( #65, #51 ) ;
#158 =( NAMED_UNIT ( * ) PLANE_ANGLE_UNIT ( ) SI_UNIT ( $, .RADIAN. ) );
#159 = APPROVAL_DATE_TIME ( #181, #141 ) ;
#160 = DIRECTION ( 'NONE',  ( 0.0000000000000000000, 1.000000000000000000, 0.0000000000000000000 ) ) ;
#161 = AXIS2_PLACEMENT_3D ( 'NONE', #58, #164, #137 ) ;
#162 = APPROVAL ( #31, 'UNSPECIFIED' ) ;
#163 = CALENDAR_DATE ( 2021, 6, 10 ) ;
#164 = DIRECTION ( 'NONE',  ( 3.491481338843133355E-15, -1.224646799147353207E-16, 1.000000000000000000 ) ) ;
#165 = APPROVAL_DATE_TIME ( #128, #162 ) ;
#166 = APPROVAL_PERSON_ORGANIZATION ( #89, #162, #176 ) ;
#167 = ORIENTED_EDGE ( 'NONE', *, *, #21, .F. ) ;
#168 = ADVANCED_FACE ( 'NONE', ( #45, #173 ), #32, .T. ) ;
#169 = PERSON_AND_ORGANIZATION ( #74, #178 ) ;
#170 = APPLICATION_CONTEXT ( 'configuration controlled 3d designs of mechanical parts and assemblies' ) ;
#171 = APPROVAL_STATUS ( 'not_yet_approved' ) ;
#172 = PERSON_AND_ORGANIZATION ( #74, #178 ) ;
#173 = FACE_BOUND ( 'NONE', #192, .T. ) ;
#174 = CLOSED_SHELL ( 'NONE', ( #104, #11, #111 ) ) ;
#175 = EDGE_CURVE ( 'NONE', #105, #105, #116, .T. ) ;
#176 = APPROVAL_ROLE ( '' ) ;
#177 = COORDINATED_UNIVERSAL_TIME_OFFSET ( 1, 0, .AHEAD. ) ;
#178 = ORGANIZATION ( 'UNSPECIFIED', 'UNSPECIFIED', '' ) ;
#179 = FACE_OUTER_BOUND ( 'NONE', #81, .T. ) ;
#180 = PRODUCT_DEFINITION ( 'UNKNOWN', '', #122, #22 ) ;
#181 = DATE_AND_TIME ( #73, #18 ) ;
#182 = DIRECTION ( 'NONE',  ( -4.275831445896958607E-31, -1.000000000000000000, -1.224646799147353207E-16 ) ) ;
#183 = CARTESIAN_POINT ( 'NONE',  ( 1.326762908760390423E-13, -4.653657836759941941E-15, 38.00000000000000000 ) ) ;
#184 = LOCAL_TIME ( 11, 23, 2.000000000000000000, #177 ) ;
#185 = CARTESIAN_POINT ( 'NONE',  ( 3.142333204958820020E-14, 0.9999999999999954481, 9.000000000000000000 ) ) ;
#186 = CIRCLE ( 'NONE', #50, 1.000000000000000000 ) ;
#187 = APPLICATION_PROTOCOL_DEFINITION ( 'international standard', 'config_control_design', 1994, #170 ) ;
#188 = CC_DESIGN_PERSON_AND_ORGANIZATION_ASSIGNMENT ( #29, #63, ( #38 ) ) ;
#189 = DIRECTION ( 'NONE',  ( 4.275831445896958607E-31, 1.000000000000000000, 1.224646799147353207E-16 ) ) ;
#190 = ADVANCED_FACE ( 'NONE', ( #23, #138 ), #121, .T. ) ;
#191 = DIRECTION ( 'NONE',  ( -3.491481338843133355E-15, 1.224646799147353207E-16, -1.000000000000000000 ) ) ;
#192 = EDGE_LOOP ( 'NONE', ( #69 ) ) ;
#193 = CARTESIAN_POINT ( 'NONE',  ( 2.015807690851651802E-15, -7.070501591499427093E-17, 0.5773502691896297279 ) ) ;
#194 = APPROVAL_DATE_TIME ( #37, #145 ) ;
#195 =( LENGTH_UNIT ( ) NAMED_UNIT ( * ) SI_UNIT ( .MILLI., .METRE. ) );
#196 = PLANE ( 'NONE',  #161 ) ;
#197 = DIRECTION ( 'NONE',  ( -3.491481338843133355E-15, 1.224646799147353207E-16, -1.000000000000000000 ) ) ;
#198 = CARTESIAN_POINT ( 'NONE',  ( 3.142333204958820020E-14, -1.102182119232617714E-15, 9.000000000000000000 ) ) ;
#199 = LOCAL_TIME ( 11, 23, 2.000000000000000000, #86 ) ;
#200 = CC_DESIGN_SECURITY_CLASSIFICATION ( #126, ( #122 ) ) ;
#201 = CARTESIAN_POINT ( 'NONE',  ( 1.319779946082704535E-13, 0.9999999999999954481, 37.79999999999999716 ) ) ;
#202 = DIRECTION ( 'NONE',  ( 0.0000000000000000000, 0.0000000000000000000, 1.000000000000000000 ) ) ;
#203 = FACE_OUTER_BOUND ( 'NONE', #66, .T. ) ;
ENDSEC;
END-ISO-10303-21;
