ISO-10303-21;
HEADER;
FILE_DESCRIPTION (( 'STEP AP203' ),
    '1' );
FILE_NAME ('53612.step',
    '2021-10-06T09:23:02',
    ( '' ),
    ( '' ),
    'SwSTEP 2.0',
    'SolidWorks 2019',
    '' );
FILE_SCHEMA (( 'CONFIG_CONTROL_DESIGN' ));
ENDSEC;

DATA;
#1 = VERTEX_POINT ( 'NONE', #164 ) ;
#2 = EDGE_CURVE ( 'NONE', #161, #161, #57, .T. ) ;
#3 = AXIS2_PLACEMENT_3D ( 'NONE', #36, #92, #30 ) ;
#4 = CC_DESIGN_DATE_AND_TIME_ASSIGNMENT ( #55, #96, ( #11 ) ) ;
#5 =( NAMED_UNIT ( * ) SI_UNIT ( $, .STERADIAN. ) SOLID_ANGLE_UNIT ( ) );
#6 = MANIFOLD_SOLID_BREP ( 'Corps-Déplacer/Copier1[2]', #144 ) ;
#7 = ORIENTED_EDGE ( 'NONE', *, *, #2, .T. ) ;
#8 = ORIENTED_EDGE ( 'NONE', *, *, #2, .F. ) ;
#9 = ADVANCED_FACE ( 'NONE', ( #196, #127 ), #72, .T. ) ;
#10 = DIRECTION ( 'NONE',  ( 0.0000000000000000000, 1.000000000000000000, 0.0000000000000000000 ) ) ;
#11 = SECURITY_CLASSIFICATION ( '', '', #52 ) ;
#12 = CARTESIAN_POINT ( 'NONE',  ( 0.0000000000000000000, 0.0000000000000000000, 0.0000000000000000000 ) ) ;
#13 = PERSON_AND_ORGANIZATION ( #76, #14 ) ;
#14 = ORGANIZATION ( 'UNSPECIFIED', 'UNSPECIFIED', '' ) ;
#15 = FACE_OUTER_BOUND ( 'NONE', #106, .T. ) ;
#16 = CALENDAR_DATE ( 2021, 6, 10 ) ;
#17 = LOCAL_TIME ( 11, 23, 2.000000000000000000, #157 ) ;
#18 = APPROVAL_ROLE ( '' ) ;
#19 = CC_DESIGN_APPROVAL ( #69, ( #108 ) ) ;
#20 = PERSON_AND_ORGANIZATION ( #76, #14 ) ;
#21 = ADVANCED_FACE ( 'NONE', ( #71 ), #172, .F. ) ;
#22 = ORIENTED_EDGE ( 'NONE', *, *, #192, .T. ) ;
#23 = PRODUCT_DEFINITION_FORMATION_WITH_SPECIFIED_SOURCE ( 'ANY', '', #41, .NOT_KNOWN. ) ;
#24 = DIRECTION ( 'NONE',  ( -3.950625526948194478E-31, -1.000000000000000000, -1.112002228190266129E-16 ) ) ;
#25 = CALENDAR_DATE ( 2021, 6, 10 ) ;
#26 = PERSON_AND_ORGANIZATION_ROLE ( 'design_owner' ) ;
#27 = DIRECTION ( 'NONE',  ( 4.275831445896958607E-31, 1.000000000000000000, 1.224646799147353207E-16 ) ) ;
#28 = AXIS2_PLACEMENT_3D ( 'NONE', #184, #104, #27 ) ;
#29 = DIRECTION ( 'NONE',  ( -3.491481338843133355E-15, 1.224646799147353207E-16, -1.000000000000000000 ) ) ;
#30 = DIRECTION ( 'NONE',  ( 0.0000000000000000000, 1.000000000000000000, 0.0000000000000000000 ) ) ;
#31 = CARTESIAN_POINT ( 'NONE',  ( 3.142333204958820020E-14, 7.311328940476512048E-33, 9.000000000000000000 ) ) ;
#32 = DIRECTION ( 'NONE',  ( -4.275831445896958607E-31, -1.000000000000000000, -1.224646799147353207E-16 ) ) ;
#33 = CONICAL_SURFACE ( 'NONE', #47, 0.9749999999999954259, 1.047197551196592746 ) ;
#34 = DIRECTION ( 'NONE',  ( -3.491481338843133355E-15, 1.224646799147353207E-16, -1.000000000000000000 ) ) ;
#35 = VERTEX_POINT ( 'NONE', #202 ) ;
#36 = CARTESIAN_POINT ( 'NONE',  ( 1.326762908760390423E-13, -4.653657836759941941E-15, 38.00000000000000000 ) ) ;
#37 = AXIS2_PLACEMENT_3D ( 'NONE', #65, #79, #165 ) ;
#38 = VERTEX_POINT ( 'NONE', #120 ) ;
#39 = UNCERTAINTY_MEASURE_WITH_UNIT (LENGTH_MEASURE( 1.000000000000000082E-05 ), #85, 'distance_accuracy_value', 'NONE');
#40 = AXIS2_PLACEMENT_3D ( 'NONE', #73, #58, #45 ) ;
#41 = PRODUCT ( '53612', '53612', '', ( #84 ) ) ;
#42 = ORIENTED_EDGE ( 'NONE', *, *, #146, .F. ) ;
#43 = AXIS2_PLACEMENT_3D ( 'NONE', #77, #147, #74 ) ;
#44 = CC_DESIGN_PERSON_AND_ORGANIZATION_ASSIGNMENT ( #181, #50, ( #11 ) ) ;
#45 = DIRECTION ( 'NONE',  ( 0.0000000000000000000, 1.000000000000000000, 0.0000000000000000000 ) ) ;
#46 = EDGE_LOOP ( 'NONE', ( #60 ) ) ;
#47 = AXIS2_PLACEMENT_3D ( 'NONE', #101, #170, #24 ) ;
#48 = DIRECTION ( 'NONE',  ( -3.491481338843133355E-15, 1.224646799147353207E-16, -1.000000000000000000 ) ) ;
#49 = CARTESIAN_POINT ( 'NONE',  ( 1.965412498580360063E-15, -6.893739051711940676E-17, 0.5629165124598888292 ) ) ;
#50 = PERSON_AND_ORGANIZATION_ROLE ( 'classification_officer' ) ;
#51 = CARTESIAN_POINT ( 'NONE',  ( 3.142333204958820020E-14, 7.311328940476512048E-33, 9.000000000000000000 ) ) ;
#52 = SECURITY_CLASSIFICATION_LEVEL ( 'unclassified' ) ;
#53 = COORDINATED_UNIVERSAL_TIME_OFFSET ( 1, 0, .AHEAD. ) ;
#54 = DIRECTION ( 'NONE',  ( -3.491481338843133355E-15, 1.224646799147353207E-16, -1.000000000000000000 ) ) ;
#55 = DATE_AND_TIME ( #66, #132 ) ;
#56 = APPROVAL_STATUS ( 'not_yet_approved' ) ;
#57 = CIRCLE ( 'NONE', #119, 0.9749999999999999778 ) ;
#58 = DIRECTION ( 'NONE',  ( -3.491481338843133355E-15, 1.224646799147353207E-16, -1.000000000000000000 ) ) ;
#59 = PERSON_AND_ORGANIZATION ( #76, #14 ) ;
#60 = ORIENTED_EDGE ( 'NONE', *, *, #192, .F. ) ;
#61 = APPLICATION_CONTEXT ( 'configuration controlled 3d designs of mechanical parts and assemblies' ) ;
#62 = APPROVAL_STATUS ( 'not_yet_approved' ) ;
#63 = EDGE_LOOP ( 'NONE', ( #22 ) ) ;
#64 = FACE_OUTER_BOUND ( 'NONE', #187, .T. ) ;
#65 = CARTESIAN_POINT ( 'NONE',  ( 0.0000000000000000000, 0.0000000000000000000, 0.0000000000000000000 ) ) ;
#66 = CALENDAR_DATE ( 2021, 6, 10 ) ;
#67 = DATE_AND_TIME ( #83, #190 ) ;
#68 = VERTEX_POINT ( 'NONE', #116 ) ;
#69 = APPROVAL ( #62, 'UNSPECIFIED' ) ;
#70 = CALENDAR_DATE ( 2021, 6, 10 ) ;
#71 = FACE_OUTER_BOUND ( 'NONE', #46, .T. ) ;
#72 = CONICAL_SURFACE ( 'NONE', #40, 0.7750000000000000222, 0.7853981633974512766 ) ;
#73 = CARTESIAN_POINT ( 'NONE',  ( 1.326762908760390423E-13, -4.653657836759941941E-15, 38.00000000000000000 ) ) ;
#74 = DIRECTION ( 'NONE',  ( 4.275831445896957731E-31, 1.000000000000000000, 1.224646799147353454E-16 ) ) ;
#75 = PLANE ( 'NONE',  #173 ) ;
#76 = PERSON ( 'UNSPECIFIED', 'UNSPECIFIED', 'UNSPECIFIED', ('UNSPECIFIED'), ('UNSPECIFIED'), ('UNSPECIFIED') ) ;
#77 = CARTESIAN_POINT ( 'NONE',  ( 0.0000000000000000000, 0.0000000000000000000, 0.0000000000000000000 ) ) ;
#78 = PERSON_AND_ORGANIZATION_ROLE ( 'design_supplier' ) ;
#79 = DIRECTION ( 'NONE',  ( 0.0000000000000000000, 0.0000000000000000000, 1.000000000000000000 ) ) ;
#80 = COORDINATED_UNIVERSAL_TIME_OFFSET ( 1, 0, .AHEAD. ) ;
#81 = CIRCLE ( 'NONE', #176, 0.9749999999999954259 ) ;
#82 = APPLICATION_PROTOCOL_DEFINITION ( 'international standard', 'config_control_design', 1994, #61 ) ;
#83 = CALENDAR_DATE ( 2021, 6, 10 ) ;
#84 = MECHANICAL_CONTEXT ( 'NONE', #61, 'mechanical' ) ;
#85 =( LENGTH_UNIT ( ) NAMED_UNIT ( * ) SI_UNIT ( .MILLI., .METRE. ) );
#86 = SHAPE_DEFINITION_REPRESENTATION ( #183, #113 ) ;
#87 = APPROVAL_STATUS ( 'not_yet_approved' ) ;
#88 = CC_DESIGN_APPROVAL ( #143, ( #11 ) ) ;
#89 = CARTESIAN_POINT ( 'NONE',  ( 3.142333204958820020E-14, -1.102182119232617714E-15, 9.000000000000000000 ) ) ;
#90 = FACE_OUTER_BOUND ( 'NONE', #198, .T. ) ;
#91 = APPROVAL_PERSON_ORGANIZATION ( #177, #143, #18 ) ;
#92 = DIRECTION ( 'NONE',  ( -3.491481338843133355E-15, 1.224646799147353207E-16, -1.000000000000000000 ) ) ;
#93 = CYLINDRICAL_SURFACE ( 'NONE', #43, 0.9749999999999982014 ) ;
#94 = APPROVAL_PERSON_ORGANIZATION ( #20, #100, #135 ) ;
#95 = DIRECTION ( 'NONE',  ( 3.491481338843133355E-15, -1.224646799147353207E-16, 1.000000000000000000 ) ) ;
#96 = DATE_TIME_ROLE ( 'classification_date' ) ;
#97 = CARTESIAN_POINT ( 'NONE',  ( 3.142333204958820020E-14, -1.102182119232617714E-15, 9.000000000000000000 ) ) ;
#98 = ADVANCED_FACE ( 'NONE', ( #90, #109 ), #112, .T. ) ;
#99 =( GEOMETRIC_REPRESENTATION_CONTEXT ( 3 ) GLOBAL_UNCERTAINTY_ASSIGNED_CONTEXT ( ( #39 ) ) GLOBAL_UNIT_ASSIGNED_CONTEXT ( ( #85, #134, #5 ) ) REPRESENTATION_CONTEXT ( 'NONE', 'WORKASPACE' ) );
#100 = APPROVAL ( #87, 'UNSPECIFIED' ) ;
#101 = CARTESIAN_POINT ( 'NONE',  ( 1.965412498580360063E-15, -6.893739051711940676E-17, 0.5629165124598888292 ) ) ;
#102 = DATE_TIME_ROLE ( 'creation_date' ) ;
#103 = ADVANCED_FACE ( 'NONE', ( #64 ), #203, .T. ) ;
#104 = DIRECTION ( 'NONE',  ( -3.491481338843133355E-15, 1.224646799147353207E-16, -1.000000000000000000 ) ) ;
#105 = PERSON_AND_ORGANIZATION_ROLE ( 'creator' ) ;
#106 = EDGE_LOOP ( 'NONE', ( #140 ) ) ;
#107 = AXIS2_PLACEMENT_3D ( 'NONE', #51, #175, #191 ) ;
#108 = PRODUCT_DEFINITION ( 'UNKNOWN', '', #23, #193 ) ;
#109 = FACE_OUTER_BOUND ( 'NONE', #158, .T. ) ;
#110 = EDGE_LOOP ( 'NONE', ( #128 ) ) ;
#111 = LOCAL_TIME ( 11, 23, 2.000000000000000000, #155 ) ;
#112 = CYLINDRICAL_SURFACE ( 'NONE', #154, 0.9749999999999958700 ) ;
#113 = ADVANCED_BREP_SHAPE_REPRESENTATION ( '53612', ( #153, #6, #37 ), #99 ) ;
#114 = FACE_OUTER_BOUND ( 'NONE', #124, .T. ) ;
#115 = PERSON_AND_ORGANIZATION ( #76, #14 ) ;
#116 = CARTESIAN_POINT ( 'NONE',  ( 1.326762908760390423E-13, 0.7749999999999953593, 38.00000000000000000 ) ) ;
#117 = COORDINATED_UNIVERSAL_TIME_OFFSET ( 1, 0, .AHEAD. ) ;
#118 = EDGE_CURVE ( 'NONE', #35, #35, #81, .T. ) ;
#119 = AXIS2_PLACEMENT_3D ( 'NONE', #138, #29, #10 ) ;
#120 = CARTESIAN_POINT ( 'NONE',  ( 3.142333204958820020E-14, 0.9749999999999953149, 9.000000000000000000 ) ) ;
#121 = APPLICATION_PROTOCOL_DEFINITION ( 'international standard', 'config_control_design', 1994, #167 ) ;
#122 = ORIENTED_EDGE ( 'NONE', *, *, #118, .F. ) ;
#123 = ADVANCED_FACE ( 'NONE', ( #160 ), #75, .F. ) ;
#124 = EDGE_LOOP ( 'NONE', ( #7 ) ) ;
#125 = CIRCLE ( 'NONE', #3, 0.7750000000000000222 ) ;
#126 = DATE_AND_TIME ( #25, #17 ) ;
#127 = FACE_BOUND ( 'NONE', #63, .T. ) ;
#128 = ORIENTED_EDGE ( 'NONE', *, *, #180, .T. ) ;
#129 = PERSON_AND_ORGANIZATION_ROLE ( 'creator' ) ;
#130 = CC_DESIGN_PERSON_AND_ORGANIZATION_ASSIGNMENT ( #115, #78, ( #23 ) ) ;
#131 = FACE_OUTER_BOUND ( 'NONE', #185, .T. ) ;
#132 = LOCAL_TIME ( 11, 23, 2.000000000000000000, #80 ) ;
#133 = APPROVAL_DATE_TIME ( #67, #100 ) ;
#134 =( NAMED_UNIT ( * ) PLANE_ANGLE_UNIT ( ) SI_UNIT ( $, .RADIAN. ) );
#135 = APPROVAL_ROLE ( '' ) ;
#136 = CIRCLE ( 'NONE', #169, 0.9749999999999964251 ) ;
#137 = PERSON_AND_ORGANIZATION ( #76, #14 ) ;
#138 = CARTESIAN_POINT ( 'NONE',  ( 1.319779946082704535E-13, -4.629164900776995227E-15, 37.79999999999999716 ) ) ;
#139 = APPROVAL_DATE_TIME ( #197, #69 ) ;
#140 = ORIENTED_EDGE ( 'NONE', *, *, #118, .T. ) ;
#141 = CC_DESIGN_DATE_AND_TIME_ASSIGNMENT ( #126, #102, ( #108 ) ) ;
#142 = APPROVAL_DATE_TIME ( #201, #143 ) ;
#143 = APPROVAL ( #56, 'UNSPECIFIED' ) ;
#144 = CLOSED_SHELL ( 'NONE', ( #159, #98, #103 ) ) ;
#145 = ADVANCED_FACE ( 'NONE', ( #131, #114 ), #93, .T. ) ;
#146 = EDGE_CURVE ( 'NONE', #1, #1, #149, .T. ) ;
#147 = DIRECTION ( 'NONE',  ( -3.491481338843133355E-15, 1.224646799147353207E-16, -1.000000000000000000 ) ) ;
#148 = DIRECTION ( 'NONE',  ( 4.275831445896958607E-31, 1.000000000000000000, 1.224646799147352961E-16 ) ) ;
#149 = CIRCLE ( 'NONE', #200, 0.9749999999999964251 ) ;
#150 = PRODUCT_RELATED_PRODUCT_CATEGORY ( 'detail', '', ( #41 ) ) ;
#151 = LOCAL_TIME ( 11, 23, 2.000000000000000000, #117 ) ;
#152 = DIRECTION ( 'NONE',  ( -3.491481338843133355E-15, 1.224646799147353207E-16, -1.000000000000000000 ) ) ;
#153 = MANIFOLD_SOLID_BREP ( 'Corps-Déplacer/Copier1[1]', #188 ) ;
#154 = AXIS2_PLACEMENT_3D ( 'NONE', #12, #48, #148 ) ;
#155 = COORDINATED_UNIVERSAL_TIME_OFFSET ( 1, 0, .AHEAD. ) ;
#156 = EDGE_LOOP ( 'NONE', ( #8 ) ) ;
#157 = COORDINATED_UNIVERSAL_TIME_OFFSET ( 1, 0, .AHEAD. ) ;
#158 = EDGE_LOOP ( 'NONE', ( #186 ) ) ;
#159 = ADVANCED_FACE ( 'NONE', ( #15 ), #33, .T. ) ;
#160 = FACE_OUTER_BOUND ( 'NONE', #110, .T. ) ;
#161 = VERTEX_POINT ( 'NONE', #189 ) ;
#162 = DIRECTION ( 'NONE',  ( 0.0000000000000000000, 1.000000000000000000, 0.0000000000000000000 ) ) ;
#163 = CC_DESIGN_SECURITY_CLASSIFICATION ( #11, ( #23 ) ) ;
#164 = CARTESIAN_POINT ( 'NONE',  ( 3.142333204958820020E-14, 0.9749999999999953149, 9.000000000000000000 ) ) ;
#165 = DIRECTION ( 'NONE',  ( 1.000000000000000000, 0.0000000000000000000, 0.0000000000000000000 ) ) ;
#166 = CC_DESIGN_PERSON_AND_ORGANIZATION_ASSIGNMENT ( #13, #129, ( #23 ) ) ;
#167 = APPLICATION_CONTEXT ( 'configuration controlled 3d designs of mechanical parts and assemblies' ) ;
#168 = DIRECTION ( 'NONE',  ( 0.0000000000000000000, 1.000000000000000000, 0.0000000000000000000 ) ) ;
#169 = AXIS2_PLACEMENT_3D ( 'NONE', #89, #152, #168 ) ;
#170 = DIRECTION ( 'NONE',  ( 3.491481338843133355E-15, -1.224646799147353207E-16, 1.000000000000000000 ) ) ;
#171 = ORIENTED_EDGE ( 'NONE', *, *, #180, .F. ) ;
#172 = PLANE ( 'NONE',  #28 ) ;
#173 = AXIS2_PLACEMENT_3D ( 'NONE', #31, #95, #32 ) ;
#174 = CC_DESIGN_PERSON_AND_ORGANIZATION_ASSIGNMENT ( #182, #26, ( #41 ) ) ;
#175 = DIRECTION ( 'NONE',  ( 3.491481338843133355E-15, -1.224646799147353207E-16, 1.000000000000000000 ) ) ;
#176 = AXIS2_PLACEMENT_3D ( 'NONE', #49, #34, #178 ) ;
#177 = PERSON_AND_ORGANIZATION ( #76, #14 ) ;
#178 = DIRECTION ( 'NONE',  ( 3.950625526948194478E-31, 1.000000000000000000, 1.112002228190266129E-16 ) ) ;
#179 = CC_DESIGN_APPROVAL ( #100, ( #23 ) ) ;
#180 = EDGE_CURVE ( 'NONE', #38, #38, #136, .T. ) ;
#181 = PERSON_AND_ORGANIZATION ( #76, #14 ) ;
#182 = PERSON_AND_ORGANIZATION ( #76, #14 ) ;
#183 = PRODUCT_DEFINITION_SHAPE ( 'NONE', 'NONE',  #108 ) ;
#184 = CARTESIAN_POINT ( 'NONE',  ( 1.326762908760390423E-13, 5.811569157814627755E-33, 38.00000000000000000 ) ) ;
#185 = EDGE_LOOP ( 'NONE', ( #171 ) ) ;
#186 = ORIENTED_EDGE ( 'NONE', *, *, #146, .T. ) ;
#187 = EDGE_LOOP ( 'NONE', ( #42 ) ) ;
#188 = CLOSED_SHELL ( 'NONE', ( #123, #145, #9, #21 ) ) ;
#189 = CARTESIAN_POINT ( 'NONE',  ( 1.319779946082704535E-13, 0.9749999999999953149, 37.79999999999999716 ) ) ;
#190 = LOCAL_TIME ( 11, 23, 2.000000000000000000, #53 ) ;
#191 = DIRECTION ( 'NONE',  ( -4.275831445896958607E-31, -1.000000000000000000, -1.224646799147353207E-16 ) ) ;
#192 = EDGE_CURVE ( 'NONE', #68, #68, #125, .T. ) ;
#193 = DESIGN_CONTEXT ( 'detailed design', #167, 'design' ) ;
#194 = APPROVAL_ROLE ( '' ) ;
#195 = APPROVAL_PERSON_ORGANIZATION ( #137, #69, #194 ) ;
#196 = FACE_OUTER_BOUND ( 'NONE', #156, .T. ) ;
#197 = DATE_AND_TIME ( #70, #111 ) ;
#198 = EDGE_LOOP ( 'NONE', ( #122 ) ) ;
#199 = CC_DESIGN_PERSON_AND_ORGANIZATION_ASSIGNMENT ( #59, #105, ( #108 ) ) ;
#200 = AXIS2_PLACEMENT_3D ( 'NONE', #97, #54, #162 ) ;
#201 = DATE_AND_TIME ( #16, #151 ) ;
#202 = CARTESIAN_POINT ( 'NONE',  ( 1.965412498580360457E-15, 0.9749999999999953149, 0.5629165124598889403 ) ) ;
#203 = PLANE ( 'NONE',  #107 ) ;
ENDSEC;
END-ISO-10303-21;
