ISO-10303-21;
HEADER;
FILE_DESCRIPTION (( 'STEP AP203' ),
    '1' );
FILE_NAME ('53611.step',
    '2021-10-06T09:23:01',
    ( '' ),
    ( '' ),
    'SwSTEP 2.0',
    'SolidWorks 2019',
    '' );
FILE_SCHEMA (( 'CONFIG_CONTROL_DESIGN' ));
ENDSEC;

DATA;
#1 = EDGE_CURVE ( 'NONE', #202, #202, #20, .T. ) ;
#2 = PERSON_AND_ORGANIZATION ( #17, #185 ) ;
#3 = MANIFOLD_SOLID_BREP ( 'Corps-Déplacer/Copier1[1]', #117 ) ;
#4 = PRODUCT_DEFINITION_FORMATION_WITH_SPECIFIED_SOURCE ( 'ANY', '', #106, .NOT_KNOWN. ) ;
#5 = CC_DESIGN_DATE_AND_TIME_ASSIGNMENT ( #178, #26, ( #122 ) ) ;
#6 = APPROVAL_STATUS ( 'not_yet_approved' ) ;
#7 = PERSON_AND_ORGANIZATION_ROLE ( 'design_supplier' ) ;
#8 = MANIFOLD_SOLID_BREP ( 'Corps-Déplacer/Copier1[2]', #164 ) ;
#9 = FACE_OUTER_BOUND ( 'NONE', #174, .T. ) ;
#10 = LOCAL_TIME ( 11, 23, 1.000000000000000000, #60 ) ;
#11 = CARTESIAN_POINT ( 'NONE',  ( 1.915017306309068324E-15, -6.716976511924454259E-17, 0.5484827557301480416 ) ) ;
#12 = COORDINATED_UNIVERSAL_TIME_OFFSET ( 1, 0, .AHEAD. ) ;
#13 = EDGE_LOOP ( 'NONE', ( #96 ) ) ;
#14 = CC_DESIGN_PERSON_AND_ORGANIZATION_ASSIGNMENT ( #35, #160, ( #90 ) ) ;
#15 = EDGE_LOOP ( 'NONE', ( #132 ) ) ;
#16 = APPROVAL_PERSON_ORGANIZATION ( #127, #98, #34 ) ;
#17 = PERSON ( 'UNSPECIFIED', 'UNSPECIFIED', 'UNSPECIFIED', ('UNSPECIFIED'), ('UNSPECIFIED'), ('UNSPECIFIED') ) ;
#18 = DIRECTION ( 'NONE',  ( 3.491481338843133355E-15, -1.224646799147353207E-16, 1.000000000000000000 ) ) ;
#19 = ORIENTED_EDGE ( 'NONE', *, *, #95, .F. ) ;
#20 = CIRCLE ( 'NONE', #158, 0.7500000000000000000 ) ;
#21 = CARTESIAN_POINT ( 'NONE',  ( 1.319779946082704535E-13, 0.9499999999999952927, 37.79999999999999716 ) ) ;
#22 = CC_DESIGN_APPROVAL ( #136, ( #122 ) ) ;
#23 = PRODUCT_RELATED_PRODUCT_CATEGORY ( 'detail', '', ( #106 ) ) ;
#24 = PERSON_AND_ORGANIZATION ( #17, #185 ) ;
#25 = DATE_AND_TIME ( #49, #182 ) ;
#26 = DATE_TIME_ROLE ( 'classification_date' ) ;
#27 = EDGE_LOOP ( 'NONE', ( #168 ) ) ;
#28 = DIRECTION ( 'NONE',  ( 4.275831445896958607E-31, 1.000000000000000000, 1.224646799147353454E-16 ) ) ;
#29 = FACE_OUTER_BOUND ( 'NONE', #128, .T. ) ;
#30 = CARTESIAN_POINT ( 'NONE',  ( 1.915017306309068718E-15, 0.9499999999999952927, 0.5484827557301481527 ) ) ;
#31 = DIRECTION ( 'NONE',  ( -4.275831445896958607E-31, -1.000000000000000000, -1.224646799147353207E-16 ) ) ;
#32 = CC_DESIGN_APPROVAL ( #98, ( #4 ) ) ;
#33 = CC_DESIGN_SECURITY_CLASSIFICATION ( #122, ( #4 ) ) ;
#34 = APPROVAL_ROLE ( '' ) ;
#35 = PERSON_AND_ORGANIZATION ( #17, #185 ) ;
#36 = COORDINATED_UNIVERSAL_TIME_OFFSET ( 1, 0, .AHEAD. ) ;
#37 = CARTESIAN_POINT ( 'NONE',  ( 1.915017306309068324E-15, -6.716976511924454259E-17, 0.5484827557301480416 ) ) ;
#38 = CC_DESIGN_PERSON_AND_ORGANIZATION_ASSIGNMENT ( #175, #50, ( #122 ) ) ;
#39 = CARTESIAN_POINT ( 'NONE',  ( 0.0000000000000000000, 0.0000000000000000000, 0.0000000000000000000 ) ) ;
#40 = DIRECTION ( 'NONE',  ( -3.491481338843133355E-15, 1.224646799147353207E-16, -1.000000000000000000 ) ) ;
#41 = FACE_OUTER_BOUND ( 'NONE', #15, .T. ) ;
#42 = CARTESIAN_POINT ( 'NONE',  ( 3.142333204958820020E-14, 7.123858967643781215E-33, 9.000000000000000000 ) ) ;
#43 = APPROVAL ( #201, 'UNSPECIFIED' ) ;
#44 = CARTESIAN_POINT ( 'NONE',  ( 3.142333204958820020E-14, 7.123858967643781215E-33, 9.000000000000000000 ) ) ;
#45 = MECHANICAL_CONTEXT ( 'NONE', #89, 'mechanical' ) ;
#46 = EDGE_LOOP ( 'NONE', ( #130 ) ) ;
#47 = CARTESIAN_POINT ( 'NONE',  ( 3.142333204958820020E-14, 0.9499999999999952927, 9.000000000000000000 ) ) ;
#48 = DATE_AND_TIME ( #109, #10 ) ;
#49 = CALENDAR_DATE ( 2021, 6, 10 ) ;
#50 = PERSON_AND_ORGANIZATION_ROLE ( 'classification_officer' ) ;
#51 = DIRECTION ( 'NONE',  ( -3.491481338843133355E-15, 1.224646799147353207E-16, -1.000000000000000000 ) ) ;
#52 = FACE_OUTER_BOUND ( 'NONE', #73, .T. ) ;
#53 = AXIS2_PLACEMENT_3D ( 'NONE', #176, #187, #139 ) ;
#54 = CARTESIAN_POINT ( 'NONE',  ( 3.142333204958820020E-14, -1.102182119232617714E-15, 9.000000000000000000 ) ) ;
#55 = CARTESIAN_POINT ( 'NONE',  ( 0.0000000000000000000, 0.0000000000000000000, 0.0000000000000000000 ) ) ;
#56 = PLANE ( 'NONE',  #82 ) ;
#57 = ORIENTED_EDGE ( 'NONE', *, *, #59, .F. ) ;
#58 = LOCAL_TIME ( 11, 23, 1.000000000000000000, #123 ) ;
#59 = EDGE_CURVE ( 'NONE', #85, #85, #183, .T. ) ;
#60 = COORDINATED_UNIVERSAL_TIME_OFFSET ( 1, 0, .AHEAD. ) ;
#61 = SECURITY_CLASSIFICATION_LEVEL ( 'unclassified' ) ;
#62 = CIRCLE ( 'NONE', #84, 0.9499999999999964029 ) ;
#63 = PERSON_AND_ORGANIZATION ( #17, #185 ) ;
#64 = DIRECTION ( 'NONE',  ( -3.491481338843133355E-15, 1.224646799147353207E-16, -1.000000000000000000 ) ) ;
#65 = AXIS2_PLACEMENT_3D ( 'NONE', #55, #40, #28 ) ;
#66 = FACE_OUTER_BOUND ( 'NONE', #148, .T. ) ;
#67 = CARTESIAN_POINT ( 'NONE',  ( 3.142333204958820020E-14, 0.9499999999999952927, 9.000000000000000000 ) ) ;
#68 = AXIS2_PLACEMENT_3D ( 'NONE', #196, #51, #111 ) ;
#69 = FACE_BOUND ( 'NONE', #46, .T. ) ;
#70 = APPLICATION_PROTOCOL_DEFINITION ( 'international standard', 'config_control_design', 1994, #124 ) ;
#71 = PERSON_AND_ORGANIZATION_ROLE ( 'design_owner' ) ;
#72 = APPROVAL_PERSON_ORGANIZATION ( #2, #43, #143 ) ;
#73 = EDGE_LOOP ( 'NONE', ( #57 ) ) ;
#74 = DIRECTION ( 'NONE',  ( 0.0000000000000000000, 0.0000000000000000000, 1.000000000000000000 ) ) ;
#75 = CONICAL_SURFACE ( 'NONE', #88, 0.7500000000000000000, 0.7853981633974512766 ) ;
#76 = UNCERTAINTY_MEASURE_WITH_UNIT (LENGTH_MEASURE( 1.000000000000000082E-05 ), #80, 'distance_accuracy_value', 'NONE');
#77 = PERSON_AND_ORGANIZATION ( #17, #185 ) ;
#78 = SHAPE_DEFINITION_REPRESENTATION ( #144, #163 ) ;
#79 = AXIS2_PLACEMENT_3D ( 'NONE', #91, #74, #184 ) ;
#80 =( LENGTH_UNIT ( ) NAMED_UNIT ( * ) SI_UNIT ( .MILLI., .METRE. ) );
#81 = DIRECTION ( 'NONE',  ( -3.491481338843133355E-15, 1.224646799147353207E-16, -1.000000000000000000 ) ) ;
#82 = AXIS2_PLACEMENT_3D ( 'NONE', #44, #102, #31 ) ;
#83 = VERTEX_POINT ( 'NONE', #67 ) ;
#84 = AXIS2_PLACEMENT_3D ( 'NONE', #54, #115, #99 ) ;
#85 = VERTEX_POINT ( 'NONE', #30 ) ;
#86 = DIRECTION ( 'NONE',  ( 0.0000000000000000000, 1.000000000000000000, 0.0000000000000000000 ) ) ;
#87 = CC_DESIGN_APPROVAL ( #43, ( #90 ) ) ;
#88 = AXIS2_PLACEMENT_3D ( 'NONE', #121, #154, #86 ) ;
#89 = APPLICATION_CONTEXT ( 'configuration controlled 3d designs of mechanical parts and assemblies' ) ;
#90 = PRODUCT_DEFINITION ( 'UNKNOWN', '', #4, #192 ) ;
#91 = CARTESIAN_POINT ( 'NONE',  ( 0.0000000000000000000, 0.0000000000000000000, 0.0000000000000000000 ) ) ;
#92 = APPROVAL_DATE_TIME ( #25, #98 ) ;
#93 =( GEOMETRIC_REPRESENTATION_CONTEXT ( 3 ) GLOBAL_UNCERTAINTY_ASSIGNED_CONTEXT ( ( #76 ) ) GLOBAL_UNIT_ASSIGNED_CONTEXT ( ( #80, #165, #118 ) ) REPRESENTATION_CONTEXT ( 'NONE', 'WORKASPACE' ) );
#94 = COORDINATED_UNIVERSAL_TIME_OFFSET ( 1, 0, .AHEAD. ) ;
#95 = EDGE_CURVE ( 'NONE', #141, #141, #104, .T. ) ;
#96 = ORIENTED_EDGE ( 'NONE', *, *, #172, .T. ) ;
#97 = DIRECTION ( 'NONE',  ( -4.054589356604726834E-31, -1.000000000000000000, -1.141265444721589181E-16 ) ) ;
#98 = APPROVAL ( #6, 'UNSPECIFIED' ) ;
#99 = DIRECTION ( 'NONE',  ( 0.0000000000000000000, 1.000000000000000000, 0.0000000000000000000 ) ) ;
#100 = DIRECTION ( 'NONE',  ( -3.491481338843133355E-15, 1.224646799147353207E-16, -1.000000000000000000 ) ) ;
#101 = LOCAL_TIME ( 11, 23, 1.000000000000000000, #36 ) ;
#102 = DIRECTION ( 'NONE',  ( 3.491481338843133355E-15, -1.224646799147353207E-16, 1.000000000000000000 ) ) ;
#103 = PLANE ( 'NONE',  #126 ) ;
#104 = CIRCLE ( 'NONE', #179, 0.9499999999999964029 ) ;
#105 = APPLICATION_PROTOCOL_DEFINITION ( 'international standard', 'config_control_design', 1994, #89 ) ;
#106 = PRODUCT ( '53611', '53611', '', ( #45 ) ) ;
#107 = DATE_AND_TIME ( #186, #58 ) ;
#108 = ADVANCED_FACE ( 'NONE', ( #52, #114 ), #181, .T. ) ;
#109 = CALENDAR_DATE ( 2021, 6, 10 ) ;
#110 = CONICAL_SURFACE ( 'NONE', #195, 0.9499999999999954037, 1.047197551196592746 ) ;
#111 = DIRECTION ( 'NONE',  ( 4.275831445896958607E-31, 1.000000000000000000, 1.224646799147353207E-16 ) ) ;
#112 = DIRECTION ( 'NONE',  ( -3.491481338843133355E-15, 1.224646799147353207E-16, -1.000000000000000000 ) ) ;
#113 = ADVANCED_FACE ( 'NONE', ( #177 ), #110, .T. ) ;
#114 = FACE_OUTER_BOUND ( 'NONE', #116, .T. ) ;
#115 = DIRECTION ( 'NONE',  ( -3.491481338843133355E-15, 1.224646799147353207E-16, -1.000000000000000000 ) ) ;
#116 = EDGE_LOOP ( 'NONE', ( #193 ) ) ;
#117 = CLOSED_SHELL ( 'NONE', ( #190, #138, #199, #153 ) ) ;
#118 =( NAMED_UNIT ( * ) SI_UNIT ( $, .STERADIAN. ) SOLID_ANGLE_UNIT ( ) );
#119 = EDGE_LOOP ( 'NONE', ( #150 ) ) ;
#120 = CC_DESIGN_PERSON_AND_ORGANIZATION_ASSIGNMENT ( #24, #7, ( #4 ) ) ;
#121 = CARTESIAN_POINT ( 'NONE',  ( 1.326762908760390423E-13, -4.653657836759941941E-15, 38.00000000000000000 ) ) ;
#122 = SECURITY_CLASSIFICATION ( '', '', #61 ) ;
#123 = COORDINATED_UNIVERSAL_TIME_OFFSET ( 1, 0, .AHEAD. ) ;
#124 = APPLICATION_CONTEXT ( 'configuration controlled 3d designs of mechanical parts and assemblies' ) ;
#125 = ORIENTED_EDGE ( 'NONE', *, *, #133, .F. ) ;
#126 = AXIS2_PLACEMENT_3D ( 'NONE', #42, #18, #171 ) ;
#127 = PERSON_AND_ORGANIZATION ( #17, #185 ) ;
#128 = EDGE_LOOP ( 'NONE', ( #19 ) ) ;
#129 = CALENDAR_DATE ( 2021, 6, 10 ) ;
#130 = ORIENTED_EDGE ( 'NONE', *, *, #1, .T. ) ;
#131 = PLANE ( 'NONE',  #68 ) ;
#132 = ORIENTED_EDGE ( 'NONE', *, *, #133, .T. ) ;
#133 = EDGE_CURVE ( 'NONE', #83, #83, #62, .T. ) ;
#134 = ORIENTED_EDGE ( 'NONE', *, *, #1, .F. ) ;
#135 = CARTESIAN_POINT ( 'NONE',  ( 1.326762908760390423E-13, -4.653657836759941941E-15, 38.00000000000000000 ) ) ;
#136 = APPROVAL ( #173, 'UNSPECIFIED' ) ;
#137 = FACE_OUTER_BOUND ( 'NONE', #13, .T. ) ;
#138 = ADVANCED_FACE ( 'NONE', ( #66, #137 ), #200, .T. ) ;
#139 = DIRECTION ( 'NONE',  ( 0.0000000000000000000, 1.000000000000000000, 0.0000000000000000000 ) ) ;
#140 = CC_DESIGN_DATE_AND_TIME_ASSIGNMENT ( #48, #191, ( #90 ) ) ;
#141 = VERTEX_POINT ( 'NONE', #47 ) ;
#142 = FACE_OUTER_BOUND ( 'NONE', #27, .T. ) ;
#143 = APPROVAL_ROLE ( '' ) ;
#144 = PRODUCT_DEFINITION_SHAPE ( 'NONE', 'NONE',  #90 ) ;
#145 = CIRCLE ( 'NONE', #53, 0.9499999999999999556 ) ;
#146 = PERSON_AND_ORGANIZATION_ROLE ( 'creator' ) ;
#147 = LOCAL_TIME ( 11, 23, 1.000000000000000000, #12 ) ;
#148 = EDGE_LOOP ( 'NONE', ( #125 ) ) ;
#149 = APPROVAL_ROLE ( '' ) ;
#150 = ORIENTED_EDGE ( 'NONE', *, *, #59, .T. ) ;
#151 = CALENDAR_DATE ( 2021, 6, 10 ) ;
#152 = DIRECTION ( 'NONE',  ( 3.491481338843133355E-15, -1.224646799147353207E-16, 1.000000000000000000 ) ) ;
#153 = ADVANCED_FACE ( 'NONE', ( #9 ), #131, .F. ) ;
#154 = DIRECTION ( 'NONE',  ( -3.491481338843133355E-15, 1.224646799147353207E-16, -1.000000000000000000 ) ) ;
#155 = VERTEX_POINT ( 'NONE', #21 ) ;
#156 = APPROVAL_PERSON_ORGANIZATION ( #63, #136, #149 ) ;
#157 = PERSON_AND_ORGANIZATION ( #17, #185 ) ;
#158 = AXIS2_PLACEMENT_3D ( 'NONE', #135, #81, #167 ) ;
#159 = CC_DESIGN_PERSON_AND_ORGANIZATION_ASSIGNMENT ( #77, #146, ( #4 ) ) ;
#160 = PERSON_AND_ORGANIZATION_ROLE ( 'creator' ) ;
#161 = APPROVAL_DATE_TIME ( #162, #136 ) ;
#162 = DATE_AND_TIME ( #151, #147 ) ;
#163 = ADVANCED_BREP_SHAPE_REPRESENTATION ( '53611', ( #3, #8, #79 ), #93 ) ;
#164 = CLOSED_SHELL ( 'NONE', ( #113, #108, #188 ) ) ;
#165 =( NAMED_UNIT ( * ) PLANE_ANGLE_UNIT ( ) SI_UNIT ( $, .RADIAN. ) );
#166 = DIRECTION ( 'NONE',  ( 4.275831445896959482E-31, 1.000000000000000000, 1.224646799147353207E-16 ) ) ;
#167 = DIRECTION ( 'NONE',  ( 0.0000000000000000000, 1.000000000000000000, 0.0000000000000000000 ) ) ;
#168 = ORIENTED_EDGE ( 'NONE', *, *, #172, .F. ) ;
#169 = CC_DESIGN_PERSON_AND_ORGANIZATION_ASSIGNMENT ( #157, #71, ( #106 ) ) ;
#170 = CARTESIAN_POINT ( 'NONE',  ( 1.326762908760390423E-13, 0.7499999999999953371, 38.00000000000000000 ) ) ;
#171 = DIRECTION ( 'NONE',  ( -4.275831445896958607E-31, -1.000000000000000000, -1.224646799147353207E-16 ) ) ;
#172 = EDGE_CURVE ( 'NONE', #155, #155, #145, .T. ) ;
#173 = APPROVAL_STATUS ( 'not_yet_approved' ) ;
#174 = EDGE_LOOP ( 'NONE', ( #134 ) ) ;
#175 = PERSON_AND_ORGANIZATION ( #17, #185 ) ;
#176 = CARTESIAN_POINT ( 'NONE',  ( 1.319779946082704535E-13, -4.629164900776995227E-15, 37.79999999999999716 ) ) ;
#177 = FACE_OUTER_BOUND ( 'NONE', #119, .T. ) ;
#178 = DATE_AND_TIME ( #129, #101 ) ;
#179 = AXIS2_PLACEMENT_3D ( 'NONE', #197, #112, #180 ) ;
#180 = DIRECTION ( 'NONE',  ( 0.0000000000000000000, 1.000000000000000000, 0.0000000000000000000 ) ) ;
#181 = CYLINDRICAL_SURFACE ( 'NONE', #203, 0.9499999999999959588 ) ;
#182 = LOCAL_TIME ( 11, 23, 1.000000000000000000, #94 ) ;
#183 = CIRCLE ( 'NONE', #189, 0.9499999999999954037 ) ;
#184 = DIRECTION ( 'NONE',  ( 1.000000000000000000, 0.0000000000000000000, 0.0000000000000000000 ) ) ;
#185 = ORGANIZATION ( 'UNSPECIFIED', 'UNSPECIFIED', '' ) ;
#186 = CALENDAR_DATE ( 2021, 6, 10 ) ;
#187 = DIRECTION ( 'NONE',  ( -3.491481338843133355E-15, 1.224646799147353207E-16, -1.000000000000000000 ) ) ;
#188 = ADVANCED_FACE ( 'NONE', ( #29 ), #103, .T. ) ;
#189 = AXIS2_PLACEMENT_3D ( 'NONE', #11, #100, #198 ) ;
#190 = ADVANCED_FACE ( 'NONE', ( #41 ), #56, .F. ) ;
#191 = DATE_TIME_ROLE ( 'creation_date' ) ;
#192 = DESIGN_CONTEXT ( 'detailed design', #124, 'design' ) ;
#193 = ORIENTED_EDGE ( 'NONE', *, *, #95, .T. ) ;
#194 = APPROVAL_DATE_TIME ( #107, #43 ) ;
#195 = AXIS2_PLACEMENT_3D ( 'NONE', #37, #152, #97 ) ;
#196 = CARTESIAN_POINT ( 'NONE',  ( 1.326762908760390423E-13, 5.624099184981896238E-33, 38.00000000000000000 ) ) ;
#197 = CARTESIAN_POINT ( 'NONE',  ( 3.142333204958820020E-14, -1.102182119232617714E-15, 9.000000000000000000 ) ) ;
#198 = DIRECTION ( 'NONE',  ( 4.054589356604726834E-31, 1.000000000000000000, 1.141265444721589181E-16 ) ) ;
#199 = ADVANCED_FACE ( 'NONE', ( #142, #69 ), #75, .T. ) ;
#200 = CYLINDRICAL_SURFACE ( 'NONE', #65, 0.9499999999999981792 ) ;
#201 = APPROVAL_STATUS ( 'not_yet_approved' ) ;
#202 = VERTEX_POINT ( 'NONE', #170 ) ;
#203 = AXIS2_PLACEMENT_3D ( 'NONE', #39, #64, #166 ) ;
ENDSEC;
END-ISO-10303-21;
