ISO-10303-21;
HEADER;
FILE_DESCRIPTION (( 'STEP AP203' ),
    '1' );
FILE_NAME ('53610.step',
    '2021-10-06T09:23:01',
    ( '' ),
    ( '' ),
    'SwSTEP 2.0',
    'SolidWorks 2019',
    '' );
FILE_SCHEMA (( 'CONFIG_CONTROL_DESIGN' ));
ENDSEC;

DATA;
#1 = MANIFOLD_SOLID_BREP ( 'Corps-Déplacer/Copier1[2]', #30 ) ;
#2 = AXIS2_PLACEMENT_3D ( 'NONE', #49, #134, #132 ) ;
#3 = APPROVAL_STATUS ( 'not_yet_approved' ) ;
#4 = APPROVAL_ROLE ( '' ) ;
#5 = PRODUCT_RELATED_PRODUCT_CATEGORY ( 'detail', '', ( #138 ) ) ;
#6 = APPROVAL_STATUS ( 'not_yet_approved' ) ;
#7 = ORIENTED_EDGE ( 'NONE', *, *, #202, .T. ) ;
#8 = ORIENTED_EDGE ( 'NONE', *, *, #18, .F. ) ;
#9 = VERTEX_POINT ( 'NONE', #148 ) ;
#10 = EDGE_LOOP ( 'NONE', ( #184 ) ) ;
#11 = DIRECTION ( 'NONE',  ( -3.491481338843133355E-15, 1.224646799147353207E-16, -1.000000000000000000 ) ) ;
#12 = AXIS2_PLACEMENT_3D ( 'NONE', #40, #147, #125 ) ;
#13 = DIRECTION ( 'NONE',  ( -4.275831445896958607E-31, -1.000000000000000000, -1.224646799147353207E-16 ) ) ;
#14 = FACE_OUTER_BOUND ( 'NONE', #182, .T. ) ;
#15 = CC_DESIGN_PERSON_AND_ORGANIZATION_ASSIGNMENT ( #152, #35, ( #81 ) ) ;
#16 = APPLICATION_PROTOCOL_DEFINITION ( 'international standard', 'config_control_design', 1994, #116 ) ;
#17 = EDGE_CURVE ( 'NONE', #183, #183, #121, .T. ) ;
#18 = EDGE_CURVE ( 'NONE', #9, #9, #126, .T. ) ;
#19 = APPROVAL_DATE_TIME ( #112, #197 ) ;
#20 = PERSON_AND_ORGANIZATION ( #43, #165 ) ;
#21 = PRODUCT_DEFINITION_SHAPE ( 'NONE', 'NONE',  #193 ) ;
#22 = EDGE_LOOP ( 'NONE', ( #42 ) ) ;
#23 = CIRCLE ( 'NONE', #12, 0.7250000000000000888 ) ;
#24 = DIRECTION ( 'NONE',  ( 3.491481338843133355E-15, -1.224646799147353207E-16, 1.000000000000000000 ) ) ;
#25 = DIRECTION ( 'NONE',  ( -3.491481338843133355E-15, 1.224646799147353207E-16, -1.000000000000000000 ) ) ;
#26 = CARTESIAN_POINT ( 'NONE',  ( 1.319779946082704535E-13, -4.629164900776995227E-15, 37.79999999999999716 ) ) ;
#27 = PERSON_AND_ORGANIZATION_ROLE ( 'classification_officer' ) ;
#28 = CYLINDRICAL_SURFACE ( 'NONE', #84, 0.9249999999999959366 ) ;
#29 = CARTESIAN_POINT ( 'NONE',  ( 0.0000000000000000000, 0.0000000000000000000, 0.0000000000000000000 ) ) ;
#30 = CLOSED_SHELL ( 'NONE', ( #169, #133, #60 ) ) ;
#31 = LOCAL_TIME ( 11, 23, 1.000000000000000000, #124 ) ;
#32 = FACE_OUTER_BOUND ( 'NONE', #22, .T. ) ;
#33 = DATE_TIME_ROLE ( 'classification_date' ) ;
#34 = MECHANICAL_CONTEXT ( 'NONE', #116, 'mechanical' ) ;
#35 = PERSON_AND_ORGANIZATION_ROLE ( 'creator' ) ;
#36 = LOCAL_TIME ( 11, 23, 1.000000000000000000, #73 ) ;
#37 = APPROVAL_ROLE ( '' ) ;
#38 = CALENDAR_DATE ( 2021, 6, 10 ) ;
#39 = CALENDAR_DATE ( 2021, 6, 10 ) ;
#40 = CARTESIAN_POINT ( 'NONE',  ( 1.326762908760390423E-13, -4.653657836759941941E-15, 38.00000000000000000 ) ) ;
#41 = ORIENTED_EDGE ( 'NONE', *, *, #17, .F. ) ;
#42 = ORIENTED_EDGE ( 'NONE', *, *, #202, .F. ) ;
#43 = PERSON ( 'UNSPECIFIED', 'UNSPECIFIED', 'UNSPECIFIED', ('UNSPECIFIED'), ('UNSPECIFIED'), ('UNSPECIFIED') ) ;
#44 = LOCAL_TIME ( 11, 23, 1.000000000000000000, #98 ) ;
#45 = DIRECTION ( 'NONE',  ( 4.275831445896958607E-31, 1.000000000000000000, 1.224646799147353207E-16 ) ) ;
#46 = DIRECTION ( 'NONE',  ( 4.275831445896958607E-31, 1.000000000000000000, 1.224646799147353454E-16 ) ) ;
#47 = VERTEX_POINT ( 'NONE', #179 ) ;
#48 = FACE_OUTER_BOUND ( 'NONE', #127, .T. ) ;
#49 = CARTESIAN_POINT ( 'NONE',  ( 3.142333204958820020E-14, -1.102182119232617714E-15, 9.000000000000000000 ) ) ;
#50 = PERSON_AND_ORGANIZATION ( #43, #165 ) ;
#51 =( GEOMETRIC_REPRESENTATION_CONTEXT ( 3 ) GLOBAL_UNCERTAINTY_ASSIGNED_CONTEXT ( ( #143 ) ) GLOBAL_UNIT_ASSIGNED_CONTEXT ( ( #110, #190, #173 ) ) REPRESENTATION_CONTEXT ( 'NONE', 'WORKASPACE' ) );
#52 = CC_DESIGN_DATE_AND_TIME_ASSIGNMENT ( #159, #194, ( #193 ) ) ;
#53 = PERSON_AND_ORGANIZATION_ROLE ( 'design_owner' ) ;
#54 = DESIGN_CONTEXT ( 'detailed design', #160, 'design' ) ;
#55 = APPLICATION_PROTOCOL_DEFINITION ( 'international standard', 'config_control_design', 1994, #160 ) ;
#56 = CARTESIAN_POINT ( 'NONE',  ( 1.864622114037777768E-15, 0.9249999999999953815, 0.5340489990004074761 ) ) ;
#57 = AXIS2_PLACEMENT_3D ( 'NONE', #26, #87, #104 ) ;
#58 = EDGE_LOOP ( 'NONE', ( #8 ) ) ;
#59 = ORIENTED_EDGE ( 'NONE', *, *, #17, .T. ) ;
#60 = ADVANCED_FACE ( 'NONE', ( #70 ), #117, .T. ) ;
#61 = CYLINDRICAL_SURFACE ( 'NONE', #157, 0.9249999999999982681 ) ;
#62 = CC_DESIGN_APPROVAL ( #197, ( #193 ) ) ;
#63 = CC_DESIGN_PERSON_AND_ORGANIZATION_ASSIGNMENT ( #50, #53, ( #138 ) ) ;
#64 = SHAPE_DEFINITION_REPRESENTATION ( #21, #103 ) ;
#65 = PERSON_AND_ORGANIZATION_ROLE ( 'creator' ) ;
#66 = PERSON_AND_ORGANIZATION ( #43, #165 ) ;
#67 = SECURITY_CLASSIFICATION ( '', '', #94 ) ;
#68 = DIRECTION ( 'NONE',  ( 4.164172852729178579E-31, 1.000000000000000000, 1.172110456741091498E-16 ) ) ;
#69 = APPROVAL ( #3, 'UNSPECIFIED' ) ;
#70 = FACE_OUTER_BOUND ( 'NONE', #58, .T. ) ;
#71 = CONICAL_SURFACE ( 'NONE', #200, 0.7250000000000000888, 0.7853981633974512766 ) ;
#72 = CARTESIAN_POINT ( 'NONE',  ( 3.142333204958820020E-14, 6.936388994811049014E-33, 9.000000000000000000 ) ) ;
#73 = COORDINATED_UNIVERSAL_TIME_OFFSET ( 1, 0, .AHEAD. ) ;
#74 = PLANE ( 'NONE',  #115 ) ;
#75 = CC_DESIGN_APPROVAL ( #86, ( #81 ) ) ;
#76 = FACE_OUTER_BOUND ( 'NONE', #196, .T. ) ;
#77 = FACE_OUTER_BOUND ( 'NONE', #128, .T. ) ;
#78 = ADVANCED_FACE ( 'NONE', ( #135 ), #151, .F. ) ;
#79 = MANIFOLD_SOLID_BREP ( 'Corps-Déplacer/Copier1[1]', #140 ) ;
#80 = AXIS2_PLACEMENT_3D ( 'NONE', #72, #131, #118 ) ;
#81 = PRODUCT_DEFINITION_FORMATION_WITH_SPECIFIED_SOURCE ( 'ANY', '', #138, .NOT_KNOWN. ) ;
#82 = PERSON_AND_ORGANIZATION ( #43, #165 ) ;
#83 = VERTEX_POINT ( 'NONE', #56 ) ;
#84 = AXIS2_PLACEMENT_3D ( 'NONE', #29, #120, #203 ) ;
#85 = DIRECTION ( 'NONE',  ( -4.164172852729178579E-31, -1.000000000000000000, -1.172110456741091498E-16 ) ) ;
#86 = APPROVAL ( #6, 'UNSPECIFIED' ) ;
#87 = DIRECTION ( 'NONE',  ( -3.491481338843133355E-15, 1.224646799147353207E-16, -1.000000000000000000 ) ) ;
#88 = LOCAL_TIME ( 11, 23, 1.000000000000000000, #99 ) ;
#89 = PERSON_AND_ORGANIZATION_ROLE ( 'design_supplier' ) ;
#90 = CARTESIAN_POINT ( 'NONE',  ( 1.326762908760390423E-13, 5.436629212149164721E-33, 38.00000000000000000 ) ) ;
#91 = CALENDAR_DATE ( 2021, 6, 10 ) ;
#92 = CARTESIAN_POINT ( 'NONE',  ( 3.142333204958820020E-14, 6.936388994811049014E-33, 9.000000000000000000 ) ) ;
#93 = DIRECTION ( 'NONE',  ( -3.491481338843133355E-15, 1.224646799147353207E-16, -1.000000000000000000 ) ) ;
#94 = SECURITY_CLASSIFICATION_LEVEL ( 'unclassified' ) ;
#95 = DIRECTION ( 'NONE',  ( 1.000000000000000000, 0.0000000000000000000, 0.0000000000000000000 ) ) ;
#96 = CARTESIAN_POINT ( 'NONE',  ( 0.0000000000000000000, 0.0000000000000000000, 0.0000000000000000000 ) ) ;
#97 = DIRECTION ( 'NONE',  ( -3.491481338843133355E-15, 1.224646799147353207E-16, -1.000000000000000000 ) ) ;
#98 = COORDINATED_UNIVERSAL_TIME_OFFSET ( 1, 0, .AHEAD. ) ;
#99 = COORDINATED_UNIVERSAL_TIME_OFFSET ( 1, 0, .AHEAD. ) ;
#100 = CALENDAR_DATE ( 2021, 6, 10 ) ;
#101 = ADVANCED_FACE ( 'NONE', ( #76, #48 ), #61, .T. ) ;
#102 = EDGE_LOOP ( 'NONE', ( #114 ) ) ;
#103 = ADVANCED_BREP_SHAPE_REPRESENTATION ( '53610', ( #79, #1, #188 ), #51 ) ;
#104 = DIRECTION ( 'NONE',  ( 0.0000000000000000000, 1.000000000000000000, 0.0000000000000000000 ) ) ;
#105 = ORIENTED_EDGE ( 'NONE', *, *, #18, .T. ) ;
#106 = CARTESIAN_POINT ( 'NONE',  ( 1.326762908760390423E-13, -4.653657836759941941E-15, 38.00000000000000000 ) ) ;
#107 = FACE_OUTER_BOUND ( 'NONE', #10, .T. ) ;
#108 = AXIS2_PLACEMENT_3D ( 'NONE', #92, #189, #13 ) ;
#109 = CC_DESIGN_APPROVAL ( #69, ( #67 ) ) ;
#110 =( LENGTH_UNIT ( ) NAMED_UNIT ( * ) SI_UNIT ( .MILLI., .METRE. ) );
#111 = APPROVAL_PERSON_ORGANIZATION ( #82, #197, #142 ) ;
#112 = DATE_AND_TIME ( #38, #88 ) ;
#113 = ORIENTED_EDGE ( 'NONE', *, *, #177, .T. ) ;
#114 = ORIENTED_EDGE ( 'NONE', *, *, #150, .T. ) ;
#115 = AXIS2_PLACEMENT_3D ( 'NONE', #90, #153, #45 ) ;
#116 = APPLICATION_CONTEXT ( 'configuration controlled 3d designs of mechanical parts and assemblies' ) ;
#117 = PLANE ( 'NONE',  #80 ) ;
#118 = DIRECTION ( 'NONE',  ( -4.275831445896958607E-31, -1.000000000000000000, -1.224646799147353207E-16 ) ) ;
#119 = CC_DESIGN_PERSON_AND_ORGANIZATION_ASSIGNMENT ( #66, #65, ( #193 ) ) ;
#120 = DIRECTION ( 'NONE',  ( -3.491481338843133355E-15, 1.224646799147353207E-16, -1.000000000000000000 ) ) ;
#121 = CIRCLE ( 'NONE', #57, 0.9250000000000000444 ) ;
#122 = CALENDAR_DATE ( 2021, 6, 10 ) ;
#123 = APPROVAL_DATE_TIME ( #175, #69 ) ;
#124 = COORDINATED_UNIVERSAL_TIME_OFFSET ( 1, 0, .AHEAD. ) ;
#125 = DIRECTION ( 'NONE',  ( 0.0000000000000000000, 1.000000000000000000, 0.0000000000000000000 ) ) ;
#126 = CIRCLE ( 'NONE', #171, 0.9249999999999964917 ) ;
#127 = EDGE_LOOP ( 'NONE', ( #59 ) ) ;
#128 = EDGE_LOOP ( 'NONE', ( #105 ) ) ;
#129 = EDGE_LOOP ( 'NONE', ( #7 ) ) ;
#130 = AXIS2_PLACEMENT_3D ( 'NONE', #180, #25, #68 ) ;
#131 = DIRECTION ( 'NONE',  ( 3.491481338843133355E-15, -1.224646799147353207E-16, 1.000000000000000000 ) ) ;
#132 = DIRECTION ( 'NONE',  ( 0.0000000000000000000, 1.000000000000000000, 0.0000000000000000000 ) ) ;
#133 = ADVANCED_FACE ( 'NONE', ( #107, #77 ), #28, .T. ) ;
#134 = DIRECTION ( 'NONE',  ( -3.491481338843133355E-15, 1.224646799147353207E-16, -1.000000000000000000 ) ) ;
#135 = FACE_OUTER_BOUND ( 'NONE', #102, .T. ) ;
#136 = CC_DESIGN_SECURITY_CLASSIFICATION ( #67, ( #81 ) ) ;
#137 = CC_DESIGN_DATE_AND_TIME_ASSIGNMENT ( #154, #33, ( #67 ) ) ;
#138 = PRODUCT ( '53610', '53610', '', ( #34 ) ) ;
#139 = CC_DESIGN_PERSON_AND_ORGANIZATION_ASSIGNMENT ( #186, #27, ( #67 ) ) ;
#140 = CLOSED_SHELL ( 'NONE', ( #78, #101, #158, #145 ) ) ;
#141 = APPROVAL_PERSON_ORGANIZATION ( #178, #69, #37 ) ;
#142 = APPROVAL_ROLE ( '' ) ;
#143 = UNCERTAINTY_MEASURE_WITH_UNIT (LENGTH_MEASURE( 1.000000000000000082E-05 ), #110, 'distance_accuracy_value', 'NONE');
#144 = FACE_OUTER_BOUND ( 'NONE', #168, .T. ) ;
#145 = ADVANCED_FACE ( 'NONE', ( #32 ), #74, .F. ) ;
#146 = ORIENTED_EDGE ( 'NONE', *, *, #150, .F. ) ;
#147 = DIRECTION ( 'NONE',  ( -3.491481338843133355E-15, 1.224646799147353207E-16, -1.000000000000000000 ) ) ;
#148 = CARTESIAN_POINT ( 'NONE',  ( 3.142333204958820020E-14, 0.9249999999999953815, 9.000000000000000000 ) ) ;
#149 = CIRCLE ( 'NONE', #130, 0.9249999999999954925 ) ;
#150 = EDGE_CURVE ( 'NONE', #162, #162, #161, .T. ) ;
#151 = PLANE ( 'NONE',  #108 ) ;
#152 = PERSON_AND_ORGANIZATION ( #43, #165 ) ;
#153 = DIRECTION ( 'NONE',  ( -3.491481338843133355E-15, 1.224646799147353207E-16, -1.000000000000000000 ) ) ;
#154 = DATE_AND_TIME ( #91, #36 ) ;
#155 = APPROVAL_PERSON_ORGANIZATION ( #20, #86, #4 ) ;
#156 = CC_DESIGN_PERSON_AND_ORGANIZATION_ASSIGNMENT ( #172, #89, ( #81 ) ) ;
#157 = AXIS2_PLACEMENT_3D ( 'NONE', #170, #93, #46 ) ;
#158 = ADVANCED_FACE ( 'NONE', ( #14, #174 ), #71, .T. ) ;
#159 = DATE_AND_TIME ( #100, #185 ) ;
#160 = APPLICATION_CONTEXT ( 'configuration controlled 3d designs of mechanical parts and assemblies' ) ;
#161 = CIRCLE ( 'NONE', #2, 0.9249999999999964917 ) ;
#162 = VERTEX_POINT ( 'NONE', #163 ) ;
#163 = CARTESIAN_POINT ( 'NONE',  ( 3.142333204958820020E-14, 0.9249999999999953815, 9.000000000000000000 ) ) ;
#164 = DIRECTION ( 'NONE',  ( 0.0000000000000000000, 1.000000000000000000, 0.0000000000000000000 ) ) ;
#165 = ORGANIZATION ( 'UNSPECIFIED', 'UNSPECIFIED', '' ) ;
#166 = CARTESIAN_POINT ( 'NONE',  ( 1.864622114037777374E-15, -6.540213972136969075E-17, 0.5340489990004073650 ) ) ;
#167 = CARTESIAN_POINT ( 'NONE',  ( 3.142333204958820020E-14, -1.102182119232617714E-15, 9.000000000000000000 ) ) ;
#168 = EDGE_LOOP ( 'NONE', ( #113 ) ) ;
#169 = ADVANCED_FACE ( 'NONE', ( #144 ), #191, .T. ) ;
#170 = CARTESIAN_POINT ( 'NONE',  ( 0.0000000000000000000, 0.0000000000000000000, 0.0000000000000000000 ) ) ;
#171 = AXIS2_PLACEMENT_3D ( 'NONE', #167, #11, #198 ) ;
#172 = PERSON_AND_ORGANIZATION ( #43, #165 ) ;
#173 =( NAMED_UNIT ( * ) SI_UNIT ( $, .STERADIAN. ) SOLID_ANGLE_UNIT ( ) );
#174 = FACE_BOUND ( 'NONE', #129, .T. ) ;
#175 = DATE_AND_TIME ( #122, #44 ) ;
#176 = AXIS2_PLACEMENT_3D ( 'NONE', #166, #24, #85 ) ;
#177 = EDGE_CURVE ( 'NONE', #83, #83, #149, .T. ) ;
#178 = PERSON_AND_ORGANIZATION ( #43, #165 ) ;
#179 = CARTESIAN_POINT ( 'NONE',  ( 1.326762908760390423E-13, 0.7249999999999954259, 38.00000000000000000 ) ) ;
#180 = CARTESIAN_POINT ( 'NONE',  ( 1.864622114037777374E-15, -6.540213972136969075E-17, 0.5340489990004073650 ) ) ;
#181 = COORDINATED_UNIVERSAL_TIME_OFFSET ( 1, 0, .AHEAD. ) ;
#182 = EDGE_LOOP ( 'NONE', ( #41 ) ) ;
#183 = VERTEX_POINT ( 'NONE', #195 ) ;
#184 = ORIENTED_EDGE ( 'NONE', *, *, #177, .F. ) ;
#185 = LOCAL_TIME ( 11, 23, 1.000000000000000000, #181 ) ;
#186 = PERSON_AND_ORGANIZATION ( #43, #165 ) ;
#187 = DIRECTION ( 'NONE',  ( 0.0000000000000000000, 0.0000000000000000000, 1.000000000000000000 ) ) ;
#188 = AXIS2_PLACEMENT_3D ( 'NONE', #96, #187, #95 ) ;
#189 = DIRECTION ( 'NONE',  ( 3.491481338843133355E-15, -1.224646799147353207E-16, 1.000000000000000000 ) ) ;
#190 =( NAMED_UNIT ( * ) PLANE_ANGLE_UNIT ( ) SI_UNIT ( $, .RADIAN. ) );
#191 = CONICAL_SURFACE ( 'NONE', #176, 0.9249999999999954925, 1.047197551196592746 ) ;
#192 = APPROVAL_STATUS ( 'not_yet_approved' ) ;
#193 = PRODUCT_DEFINITION ( 'UNKNOWN', '', #81, #54 ) ;
#194 = DATE_TIME_ROLE ( 'creation_date' ) ;
#195 = CARTESIAN_POINT ( 'NONE',  ( 1.319779946082704535E-13, 0.9249999999999953815, 37.79999999999999716 ) ) ;
#196 = EDGE_LOOP ( 'NONE', ( #146 ) ) ;
#197 = APPROVAL ( #192, 'UNSPECIFIED' ) ;
#198 = DIRECTION ( 'NONE',  ( 0.0000000000000000000, 1.000000000000000000, 0.0000000000000000000 ) ) ;
#199 = DATE_AND_TIME ( #39, #31 ) ;
#200 = AXIS2_PLACEMENT_3D ( 'NONE', #106, #97, #164 ) ;
#201 = APPROVAL_DATE_TIME ( #199, #86 ) ;
#202 = EDGE_CURVE ( 'NONE', #47, #47, #23, .T. ) ;
#203 = DIRECTION ( 'NONE',  ( 4.275831445896958607E-31, 1.000000000000000000, 1.224646799147352961E-16 ) ) ;
ENDSEC;
END-ISO-10303-21;
