ISO-10303-21;
HEADER;
FILE_DESCRIPTION (( 'STEP AP203' ),
    '1' );
FILE_NAME ('53609.step',
    '2021-10-06T09:23:00',
    ( '' ),
    ( '' ),
    'SwSTEP 2.0',
    'SolidWorks 2019',
    '' );
FILE_SCHEMA (( 'CONFIG_CONTROL_DESIGN' ));
ENDSEC;

DATA;
#1 = APPROVAL_ROLE ( '' ) ;
#2 = VERTEX_POINT ( 'NONE', #65 ) ;
#3 = MANIFOLD_SOLID_BREP ( 'Corps-Déplacer/Copier1[2]', #27 ) ;
#4 = EDGE_CURVE ( 'NONE', #2, #2, #51, .T. ) ;
#5 = CARTESIAN_POINT ( 'NONE',  ( 0.0000000000000000000, 0.0000000000000000000, 0.0000000000000000000 ) ) ;
#6 = ORIENTED_EDGE ( 'NONE', *, *, #19, .F. ) ;
#7 = EDGE_LOOP ( 'NONE', ( #127 ) ) ;
#8 = CARTESIAN_POINT ( 'NONE',  ( 3.142333204958820020E-14, -1.102182119232617714E-15, 9.000000000000000000 ) ) ;
#9 = LOCAL_TIME ( 11, 23, 0.0000000000000000000, #138 ) ;
#10 = DIRECTION ( 'NONE',  ( -4.275831445896958607E-31, -1.000000000000000000, -1.224646799147353207E-16 ) ) ;
#11 = CLOSED_SHELL ( 'NONE', ( #96, #59, #194, #16 ) ) ;
#12 = APPROVAL_PERSON_ORGANIZATION ( #45, #199, #105 ) ;
#13 = DIRECTION ( 'NONE',  ( 3.491481338843133355E-15, -1.224646799147353207E-16, 1.000000000000000000 ) ) ;
#14 = APPROVAL ( #156, 'UNSPECIFIED' ) ;
#15 = COORDINATED_UNIVERSAL_TIME_OFFSET ( 1, 0, .AHEAD. ) ;
#16 = ADVANCED_FACE ( 'NONE', ( #197 ), #182, .F. ) ;
#17 = APPROVAL_PERSON_ORGANIZATION ( #108, #155, #18 ) ;
#18 = APPROVAL_ROLE ( '' ) ;
#19 = EDGE_CURVE ( 'NONE', #33, #33, #162, .T. ) ;
#20 = CARTESIAN_POINT ( 'NONE',  ( 3.142333204958820020E-14, 0.8999999999999953593, 9.000000000000000000 ) ) ;
#21 = ORIENTED_EDGE ( 'NONE', *, *, #4, .T. ) ;
#22 = CARTESIAN_POINT ( 'NONE',  ( 3.142333204958820020E-14, -1.102182119232617714E-15, 9.000000000000000000 ) ) ;
#23 = APPLICATION_CONTEXT ( 'configuration controlled 3d designs of mechanical parts and assemblies' ) ;
#24 = CARTESIAN_POINT ( 'NONE',  ( 1.326762908760390423E-13, -4.653657836759941941E-15, 38.00000000000000000 ) ) ;
#25 = CARTESIAN_POINT ( 'NONE',  ( 3.142333204958820020E-14, 6.748919021978315445E-33, 9.000000000000000000 ) ) ;
#26 = FACE_OUTER_BOUND ( 'NONE', #97, .T. ) ;
#27 = CLOSED_SHELL ( 'NONE', ( #74, #144, #150 ) ) ;
#28 = CARTESIAN_POINT ( 'NONE',  ( 1.319779946082704535E-13, -4.629164900776995227E-15, 37.79999999999999716 ) ) ;
#29 = CALENDAR_DATE ( 2021, 6, 10 ) ;
#30 = APPROVAL_DATE_TIME ( #106, #199 ) ;
#31 = CC_DESIGN_APPROVAL ( #155, ( #109 ) ) ;
#32 = APPLICATION_CONTEXT ( 'configuration controlled 3d designs of mechanical parts and assemblies' ) ;
#33 = VERTEX_POINT ( 'NONE', #20 ) ;
#34 =( NAMED_UNIT ( * ) SI_UNIT ( $, .STERADIAN. ) SOLID_ANGLE_UNIT ( ) );
#35 = EDGE_LOOP ( 'NONE', ( #164 ) ) ;
#36 = CONICAL_SURFACE ( 'NONE', #179, 0.8999999999999954703, 1.047197551196592746 ) ;
#37 = CC_DESIGN_SECURITY_CLASSIFICATION ( #109, ( #181 ) ) ;
#38 = ORIENTED_EDGE ( 'NONE', *, *, #19, .T. ) ;
#39 = EDGE_LOOP ( 'NONE', ( #201 ) ) ;
#40 = AXIS2_PLACEMENT_3D ( 'NONE', #54, #180, #147 ) ;
#41 = DIRECTION ( 'NONE',  ( 3.491481338843133355E-15, -1.224646799147353207E-16, 1.000000000000000000 ) ) ;
#42 = FACE_OUTER_BOUND ( 'NONE', #200, .T. ) ;
#43 = PERSON_AND_ORGANIZATION ( #142, #196 ) ;
#44 = CARTESIAN_POINT ( 'NONE',  ( 1.814226921766485635E-15, -6.363451432349481425E-17, 0.5196152422706664664 ) ) ;
#45 = PERSON_AND_ORGANIZATION ( #142, #196 ) ;
#46 = FACE_BOUND ( 'NONE', #7, .T. ) ;
#47 = PERSON_AND_ORGANIZATION ( #142, #196 ) ;
#48 = APPROVAL_STATUS ( 'not_yet_approved' ) ;
#49 = PRODUCT ( '53609', '53609', '', ( #123 ) ) ;
#50 = DATE_TIME_ROLE ( 'classification_date' ) ;
#51 = CIRCLE ( 'NONE', #158, 0.8999999999999963585 ) ;
#52 = LOCAL_TIME ( 11, 23, 0.0000000000000000000, #202 ) ;
#53 = CC_DESIGN_PERSON_AND_ORGANIZATION_ASSIGNMENT ( #43, #188, ( #49 ) ) ;
#54 = CARTESIAN_POINT ( 'NONE',  ( 0.0000000000000000000, 0.0000000000000000000, 0.0000000000000000000 ) ) ;
#55 = DIRECTION ( 'NONE',  ( -3.491481338843133355E-15, 1.224646799147353207E-16, -1.000000000000000000 ) ) ;
#56 = ORIENTED_EDGE ( 'NONE', *, *, #4, .F. ) ;
#57 = AXIS2_PLACEMENT_3D ( 'NONE', #134, #170, #203 ) ;
#58 = DIRECTION ( 'NONE',  ( 0.0000000000000000000, 1.000000000000000000, 0.0000000000000000000 ) ) ;
#59 = ADVANCED_FACE ( 'NONE', ( #163, #113 ), #178, .T. ) ;
#60 = DIRECTION ( 'NONE',  ( 3.491481338843133355E-15, -1.224646799147353207E-16, 1.000000000000000000 ) ) ;
#61 = PRODUCT_DEFINITION_SHAPE ( 'NONE', 'NONE',  #173 ) ;
#62 = SECURITY_CLASSIFICATION_LEVEL ( 'unclassified' ) ;
#63 = CC_DESIGN_PERSON_AND_ORGANIZATION_ASSIGNMENT ( #90, #119, ( #173 ) ) ;
#64 = AXIS2_PLACEMENT_3D ( 'NONE', #110, #83, #177 ) ;
#65 = CARTESIAN_POINT ( 'NONE',  ( 3.142333204958820020E-14, 0.8999999999999953593, 9.000000000000000000 ) ) ;
#66 = CIRCLE ( 'NONE', #190, 0.6999999999999999556 ) ;
#67 = EDGE_CURVE ( 'NONE', #81, #81, #66, .T. ) ;
#68 = DIRECTION ( 'NONE',  ( -3.491481338843133355E-15, 1.224646799147353207E-16, -1.000000000000000000 ) ) ;
#69 = DIRECTION ( 'NONE',  ( -3.491481338843133355E-15, 1.224646799147353207E-16, -1.000000000000000000 ) ) ;
#70 = AXIS2_PLACEMENT_3D ( 'NONE', #132, #69, #91 ) ;
#71 = PLANE ( 'NONE',  #121 ) ;
#72 = FACE_OUTER_BOUND ( 'NONE', #39, .T. ) ;
#73 = APPLICATION_PROTOCOL_DEFINITION ( 'international standard', 'config_control_design', 1994, #32 ) ;
#74 = ADVANCED_FACE ( 'NONE', ( #198 ), #36, .T. ) ;
#75 = CALENDAR_DATE ( 2021, 6, 10 ) ;
#76 =( GEOMETRIC_REPRESENTATION_CONTEXT ( 3 ) GLOBAL_UNCERTAINTY_ASSIGNED_CONTEXT ( ( #94 ) ) GLOBAL_UNIT_ASSIGNED_CONTEXT ( ( #195, #92, #34 ) ) REPRESENTATION_CONTEXT ( 'NONE', 'WORKASPACE' ) );
#77 = DATE_AND_TIME ( #79, #135 ) ;
#78 = DATE_AND_TIME ( #75, #104 ) ;
#79 = CALENDAR_DATE ( 2021, 6, 10 ) ;
#80 = PERSON_AND_ORGANIZATION ( #142, #196 ) ;
#81 = VERTEX_POINT ( 'NONE', #159 ) ;
#82 = CC_DESIGN_DATE_AND_TIME_ASSIGNMENT ( #77, #50, ( #109 ) ) ;
#83 = DIRECTION ( 'NONE',  ( -3.491481338843133355E-15, 1.224646799147353207E-16, -1.000000000000000000 ) ) ;
#84 = CYLINDRICAL_SURFACE ( 'NONE', #57, 0.8999999999999958034 ) ;
#85 = CIRCLE ( 'NONE', #103, 0.8999999999999954703 ) ;
#86 = DIRECTION ( 'NONE',  ( 0.0000000000000000000, 1.000000000000000000, 0.0000000000000000000 ) ) ;
#87 = APPROVAL_DATE_TIME ( #139, #155 ) ;
#88 = DIRECTION ( 'NONE',  ( 4.279844320860545916E-31, 1.000000000000000000, 1.204669080539455507E-16 ) ) ;
#89 = COORDINATED_UNIVERSAL_TIME_OFFSET ( 1, 0, .AHEAD. ) ;
#90 = PERSON_AND_ORGANIZATION ( #142, #196 ) ;
#91 = DIRECTION ( 'NONE',  ( 0.0000000000000000000, 1.000000000000000000, 0.0000000000000000000 ) ) ;
#92 =( NAMED_UNIT ( * ) PLANE_ANGLE_UNIT ( ) SI_UNIT ( $, .RADIAN. ) );
#93 = CARTESIAN_POINT ( 'NONE',  ( 1.319779946082704535E-13, 0.8999999999999953593, 37.79999999999999716 ) ) ;
#94 = UNCERTAINTY_MEASURE_WITH_UNIT (LENGTH_MEASURE( 1.000000000000000082E-05 ), #195, 'distance_accuracy_value', 'NONE');
#95 = EDGE_LOOP ( 'NONE', ( #6 ) ) ;
#96 = ADVANCED_FACE ( 'NONE', ( #42 ), #71, .F. ) ;
#97 = EDGE_LOOP ( 'NONE', ( #38 ) ) ;
#98 = ORIENTED_EDGE ( 'NONE', *, *, #137, .F. ) ;
#99 = DIRECTION ( 'NONE',  ( 0.0000000000000000000, 1.000000000000000000, 0.0000000000000000000 ) ) ;
#100 = CC_DESIGN_APPROVAL ( #199, ( #173 ) ) ;
#101 = FACE_OUTER_BOUND ( 'NONE', #95, .T. ) ;
#102 = DIRECTION ( 'NONE',  ( -4.275831445896958607E-31, -1.000000000000000000, -1.224646799147353207E-16 ) ) ;
#103 = AXIS2_PLACEMENT_3D ( 'NONE', #44, #167, #88 ) ;
#104 = LOCAL_TIME ( 11, 23, 0.0000000000000000000, #15 ) ;
#105 = APPROVAL_ROLE ( '' ) ;
#106 = DATE_AND_TIME ( #154, #185 ) ;
#107 = COORDINATED_UNIVERSAL_TIME_OFFSET ( 1, 0, .AHEAD. ) ;
#108 = PERSON_AND_ORGANIZATION ( #142, #196 ) ;
#109 = SECURITY_CLASSIFICATION ( '', '', #62 ) ;
#110 = CARTESIAN_POINT ( 'NONE',  ( 1.326762908760390423E-13, 5.249159239316431836E-33, 38.00000000000000000 ) ) ;
#111 = EDGE_LOOP ( 'NONE', ( #56 ) ) ;
#112 = DIRECTION ( 'NONE',  ( -3.491481338843133355E-15, 1.224646799147353207E-16, -1.000000000000000000 ) ) ;
#113 = FACE_OUTER_BOUND ( 'NONE', #183, .T. ) ;
#114 = DIRECTION ( 'NONE',  ( 4.275831445896958607E-31, 1.000000000000000000, 1.224646799147353207E-16 ) ) ;
#115 = APPROVAL_PERSON_ORGANIZATION ( #174, #14, #1 ) ;
#116 = CC_DESIGN_PERSON_AND_ORGANIZATION_ASSIGNMENT ( #47, #120, ( #109 ) ) ;
#117 = DATE_AND_TIME ( #29, #52 ) ;
#118 = FACE_OUTER_BOUND ( 'NONE', #148, .T. ) ;
#119 = PERSON_AND_ORGANIZATION_ROLE ( 'creator' ) ;
#120 = PERSON_AND_ORGANIZATION_ROLE ( 'classification_officer' ) ;
#121 = AXIS2_PLACEMENT_3D ( 'NONE', #25, #41, #102 ) ;
#122 = PERSON_AND_ORGANIZATION_ROLE ( 'creator' ) ;
#123 = MECHANICAL_CONTEXT ( 'NONE', #23, 'mechanical' ) ;
#124 = AXIS2_PLACEMENT_3D ( 'NONE', #8, #68, #58 ) ;
#125 = CARTESIAN_POINT ( 'NONE',  ( 1.814226921766485635E-15, -6.363451432349481425E-17, 0.5196152422706664664 ) ) ;
#126 = DIRECTION ( 'NONE',  ( 0.0000000000000000000, 1.000000000000000000, 0.0000000000000000000 ) ) ;
#127 = ORIENTED_EDGE ( 'NONE', *, *, #67, .T. ) ;
#128 = AXIS2_PLACEMENT_3D ( 'NONE', #28, #187, #86 ) ;
#129 = DIRECTION ( 'NONE',  ( -3.491481338843133355E-15, 1.224646799147353207E-16, -1.000000000000000000 ) ) ;
#130 = DIRECTION ( 'NONE',  ( -4.279844320860545916E-31, -1.000000000000000000, -1.204669080539455507E-16 ) ) ;
#131 = CC_DESIGN_DATE_AND_TIME_ASSIGNMENT ( #78, #169, ( #173 ) ) ;
#132 = CARTESIAN_POINT ( 'NONE',  ( 1.326762908760390423E-13, -4.653657836759941941E-15, 38.00000000000000000 ) ) ;
#133 = SHAPE_DEFINITION_REPRESENTATION ( #61, #153 ) ;
#134 = CARTESIAN_POINT ( 'NONE',  ( 0.0000000000000000000, 0.0000000000000000000, 0.0000000000000000000 ) ) ;
#135 = LOCAL_TIME ( 11, 23, 0.0000000000000000000, #107 ) ;
#136 = APPROVAL_DATE_TIME ( #117, #14 ) ;
#137 = EDGE_CURVE ( 'NONE', #192, #192, #85, .T. ) ;
#138 = COORDINATED_UNIVERSAL_TIME_OFFSET ( 1, 0, .AHEAD. ) ;
#139 = DATE_AND_TIME ( #189, #9 ) ;
#140 = PRODUCT_RELATED_PRODUCT_CATEGORY ( 'detail', '', ( #49 ) ) ;
#141 = AXIS2_PLACEMENT_3D ( 'NONE', #152, #13, #10 ) ;
#142 = PERSON ( 'UNSPECIFIED', 'UNSPECIFIED', 'UNSPECIFIED', ('UNSPECIFIED'), ('UNSPECIFIED'), ('UNSPECIFIED') ) ;
#143 = VERTEX_POINT ( 'NONE', #93 ) ;
#144 = ADVANCED_FACE ( 'NONE', ( #118, #26 ), #84, .T. ) ;
#145 = MANIFOLD_SOLID_BREP ( 'Corps-Déplacer/Copier1[1]', #11 ) ;
#146 = ORIENTED_EDGE ( 'NONE', *, *, #166, .T. ) ;
#147 = DIRECTION ( 'NONE',  ( 1.000000000000000000, 0.0000000000000000000, 0.0000000000000000000 ) ) ;
#148 = EDGE_LOOP ( 'NONE', ( #98 ) ) ;
#149 = ORIENTED_EDGE ( 'NONE', *, *, #67, .F. ) ;
#150 = ADVANCED_FACE ( 'NONE', ( #101 ), #151, .T. ) ;
#151 = PLANE ( 'NONE',  #141 ) ;
#152 = CARTESIAN_POINT ( 'NONE',  ( 3.142333204958820020E-14, 6.748919021978315445E-33, 9.000000000000000000 ) ) ;
#153 = ADVANCED_BREP_SHAPE_REPRESENTATION ( '53609', ( #145, #3, #40 ), #76 ) ;
#154 = CALENDAR_DATE ( 2021, 6, 10 ) ;
#155 = APPROVAL ( #172, 'UNSPECIFIED' ) ;
#156 = APPROVAL_STATUS ( 'not_yet_approved' ) ;
#157 = CC_DESIGN_PERSON_AND_ORGANIZATION_ASSIGNMENT ( #80, #122, ( #181 ) ) ;
#158 = AXIS2_PLACEMENT_3D ( 'NONE', #22, #112, #99 ) ;
#159 = CARTESIAN_POINT ( 'NONE',  ( 1.326762908760390423E-13, 0.6999999999999952927, 38.00000000000000000 ) ) ;
#160 = CONICAL_SURFACE ( 'NONE', #70, 0.6999999999999999556, 0.7853981633974512766 ) ;
#161 = APPLICATION_PROTOCOL_DEFINITION ( 'international standard', 'config_control_design', 1994, #23 ) ;
#162 = CIRCLE ( 'NONE', #124, 0.8999999999999963585 ) ;
#163 = FACE_OUTER_BOUND ( 'NONE', #111, .T. ) ;
#164 = ORIENTED_EDGE ( 'NONE', *, *, #137, .T. ) ;
#165 = EDGE_LOOP ( 'NONE', ( #149 ) ) ;
#166 = EDGE_CURVE ( 'NONE', #143, #143, #168, .T. ) ;
#167 = DIRECTION ( 'NONE',  ( -3.491481338843133355E-15, 1.224646799147353207E-16, -1.000000000000000000 ) ) ;
#168 = CIRCLE ( 'NONE', #128, 0.9000000000000000222 ) ;
#169 = DATE_TIME_ROLE ( 'creation_date' ) ;
#170 = DIRECTION ( 'NONE',  ( -3.491481338843133355E-15, 1.224646799147353207E-16, -1.000000000000000000 ) ) ;
#171 = CC_DESIGN_PERSON_AND_ORGANIZATION_ASSIGNMENT ( #184, #186, ( #181 ) ) ;
#172 = APPROVAL_STATUS ( 'not_yet_approved' ) ;
#173 = PRODUCT_DEFINITION ( 'UNKNOWN', '', #181, #193 ) ;
#174 = PERSON_AND_ORGANIZATION ( #142, #196 ) ;
#175 = AXIS2_PLACEMENT_3D ( 'NONE', #5, #129, #114 ) ;
#176 = CARTESIAN_POINT ( 'NONE',  ( 1.814226921766486030E-15, 0.8999999999999953593, 0.5196152422706665774 ) ) ;
#177 = DIRECTION ( 'NONE',  ( 4.275831445896958607E-31, 1.000000000000000000, 1.224646799147353207E-16 ) ) ;
#178 = CYLINDRICAL_SURFACE ( 'NONE', #175, 0.8999999999999982458 ) ;
#179 = AXIS2_PLACEMENT_3D ( 'NONE', #125, #60, #130 ) ;
#180 = DIRECTION ( 'NONE',  ( 0.0000000000000000000, 0.0000000000000000000, 1.000000000000000000 ) ) ;
#181 = PRODUCT_DEFINITION_FORMATION_WITH_SPECIFIED_SOURCE ( 'ANY', '', #49, .NOT_KNOWN. ) ;
#182 = PLANE ( 'NONE',  #64 ) ;
#183 = EDGE_LOOP ( 'NONE', ( #146 ) ) ;
#184 = PERSON_AND_ORGANIZATION ( #142, #196 ) ;
#185 = LOCAL_TIME ( 11, 23, 0.0000000000000000000, #89 ) ;
#186 = PERSON_AND_ORGANIZATION_ROLE ( 'design_supplier' ) ;
#187 = DIRECTION ( 'NONE',  ( -3.491481338843133355E-15, 1.224646799147353207E-16, -1.000000000000000000 ) ) ;
#188 = PERSON_AND_ORGANIZATION_ROLE ( 'design_owner' ) ;
#189 = CALENDAR_DATE ( 2021, 6, 10 ) ;
#190 = AXIS2_PLACEMENT_3D ( 'NONE', #24, #55, #126 ) ;
#191 = CC_DESIGN_APPROVAL ( #14, ( #181 ) ) ;
#192 = VERTEX_POINT ( 'NONE', #176 ) ;
#193 = DESIGN_CONTEXT ( 'detailed design', #32, 'design' ) ;
#194 = ADVANCED_FACE ( 'NONE', ( #72, #46 ), #160, .T. ) ;
#195 =( LENGTH_UNIT ( ) NAMED_UNIT ( * ) SI_UNIT ( .MILLI., .METRE. ) );
#196 = ORGANIZATION ( 'UNSPECIFIED', 'UNSPECIFIED', '' ) ;
#197 = FACE_OUTER_BOUND ( 'NONE', #165, .T. ) ;
#198 = FACE_OUTER_BOUND ( 'NONE', #35, .T. ) ;
#199 = APPROVAL ( #48, 'UNSPECIFIED' ) ;
#200 = EDGE_LOOP ( 'NONE', ( #21 ) ) ;
#201 = ORIENTED_EDGE ( 'NONE', *, *, #166, .F. ) ;
#202 = COORDINATED_UNIVERSAL_TIME_OFFSET ( 1, 0, .AHEAD. ) ;
#203 = DIRECTION ( 'NONE',  ( 4.275831445896958607E-31, 1.000000000000000000, 1.224646799147353207E-16 ) ) ;
ENDSEC;
END-ISO-10303-21;
