ISO-10303-21;
HEADER;
FILE_DESCRIPTION (( 'STEP AP203' ),
    '1' );
FILE_NAME ('53608.step',
    '2021-10-06T09:23:00',
    ( '' ),
    ( '' ),
    'SwSTEP 2.0',
    'SolidWorks 2019',
    '' );
FILE_SCHEMA (( 'CONFIG_CONTROL_DESIGN' ));
ENDSEC;

DATA;
#1 = ADVANCED_FACE ( 'NONE', ( #60, #34 ), #9, .T. ) ;
#2 = PERSON_AND_ORGANIZATION ( #58, #184 ) ;
#3 = ORIENTED_EDGE ( 'NONE', *, *, #109, .T. ) ;
#4 = CLOSED_SHELL ( 'NONE', ( #99, #1, #31 ) ) ;
#5 = CC_DESIGN_APPROVAL ( #46, ( #36 ) ) ;
#6 = EDGE_LOOP ( 'NONE', ( #160 ) ) ;
#7 = DIRECTION ( 'NONE',  ( -3.491481338843133355E-15, 1.224646799147353207E-16, -1.000000000000000000 ) ) ;
#8 = FACE_OUTER_BOUND ( 'NONE', #54, .T. ) ;
#9 = CYLINDRICAL_SURFACE ( 'NONE', #94, 0.8749999999999960032 ) ;
#10 = MANIFOLD_SOLID_BREP ( 'Corps-Déplacer/Copier1[1]', #115 ) ;
#11 = EDGE_CURVE ( 'NONE', #102, #102, #129, .T. ) ;
#12 = DIRECTION ( 'NONE',  ( -3.491481338843133355E-15, 1.224646799147353207E-16, -1.000000000000000000 ) ) ;
#13 = COORDINATED_UNIVERSAL_TIME_OFFSET ( 1, 0, .AHEAD. ) ;
#14 = AXIS2_PLACEMENT_3D ( 'NONE', #119, #121, #103 ) ;
#15 = PERSON_AND_ORGANIZATION ( #58, #184 ) ;
#16 = ADVANCED_FACE ( 'NONE', ( #8, #26 ), #123, .T. ) ;
#17 = APPROVAL_PERSON_ORGANIZATION ( #41, #77, #137 ) ;
#18 = PERSON_AND_ORGANIZATION ( #58, #184 ) ;
#19 = AXIS2_PLACEMENT_3D ( 'NONE', #189, #105, #70 ) ;
#20 = MECHANICAL_CONTEXT ( 'NONE', #32, 'mechanical' ) ;
#21 = CARTESIAN_POINT ( 'NONE',  ( 1.319779946082704535E-13, -4.629164900776995227E-15, 37.79999999999999716 ) ) ;
#22 = CIRCLE ( 'NONE', #192, 0.8750000000000000000 ) ;
#23 = ORIENTED_EDGE ( 'NONE', *, *, #109, .F. ) ;
#24 = VERTEX_POINT ( 'NONE', #135 ) ;
#25 = CARTESIAN_POINT ( 'NONE',  ( 3.142333204958820020E-14, 6.561449049145583244E-33, 9.000000000000000000 ) ) ;
#26 = FACE_BOUND ( 'NONE', #83, .T. ) ;
#27 = DATE_AND_TIME ( #74, #64 ) ;
#28 = CC_DESIGN_DATE_AND_TIME_ASSIGNMENT ( #65, #91, ( #47 ) ) ;
#29 = AXIS2_PLACEMENT_3D ( 'NONE', #198, #122, #39 ) ;
#30 = ADVANCED_BREP_SHAPE_REPRESENTATION ( '53608', ( #10, #139, #67 ), #111 ) ;
#31 = ADVANCED_FACE ( 'NONE', ( #106 ), #118, .T. ) ;
#32 = APPLICATION_CONTEXT ( 'configuration controlled 3d designs of mechanical parts and assemblies' ) ;
#33 = DIRECTION ( 'NONE',  ( -4.402125587170847703E-31, -1.000000000000000000, -1.239088197126297226E-16 ) ) ;
#34 = FACE_OUTER_BOUND ( 'NONE', #6, .T. ) ;
#35 = CIRCLE ( 'NONE', #197, 0.8749999999999964473 ) ;
#36 = PRODUCT_DEFINITION_FORMATION_WITH_SPECIFIED_SOURCE ( 'ANY', '', #182, .NOT_KNOWN. ) ;
#37 = DIRECTION ( 'NONE',  ( -3.491481338843133355E-15, 1.224646799147353207E-16, -1.000000000000000000 ) ) ;
#38 = DIRECTION ( 'NONE',  ( -3.491481338843133355E-15, 1.224646799147353207E-16, -1.000000000000000000 ) ) ;
#39 = DIRECTION ( 'NONE',  ( 4.402125587170847703E-31, 1.000000000000000000, 1.239088197126297226E-16 ) ) ;
#40 = CC_DESIGN_PERSON_AND_ORGANIZATION_ASSIGNMENT ( #150, #86, ( #66 ) ) ;
#41 = PERSON_AND_ORGANIZATION ( #58, #184 ) ;
#42 = ORIENTED_EDGE ( 'NONE', *, *, #203, .T. ) ;
#43 = ADVANCED_FACE ( 'NONE', ( #187 ), #130, .F. ) ;
#44 = CARTESIAN_POINT ( 'NONE',  ( 3.142333204958820020E-14, 0.8749999999999953371, 9.000000000000000000 ) ) ;
#45 =( NAMED_UNIT ( * ) PLANE_ANGLE_UNIT ( ) SI_UNIT ( $, .RADIAN. ) );
#46 = APPROVAL ( #171, 'UNSPECIFIED' ) ;
#47 = SECURITY_CLASSIFICATION ( '', '', #151 ) ;
#48 = DIRECTION ( 'NONE',  ( 1.000000000000000000, 0.0000000000000000000, 0.0000000000000000000 ) ) ;
#49 = DATE_AND_TIME ( #193, #126 ) ;
#50 = PERSON_AND_ORGANIZATION_ROLE ( 'design_owner' ) ;
#51 = DIRECTION ( 'NONE',  ( 0.0000000000000000000, 1.000000000000000000, 0.0000000000000000000 ) ) ;
#52 = APPLICATION_PROTOCOL_DEFINITION ( 'international standard', 'config_control_design', 1994, #32 ) ;
#53 = DIRECTION ( 'NONE',  ( 3.491481338843133355E-15, -1.224646799147353207E-16, 1.000000000000000000 ) ) ;
#54 = EDGE_LOOP ( 'NONE', ( #23 ) ) ;
#55 = APPLICATION_CONTEXT ( 'configuration controlled 3d designs of mechanical parts and assemblies' ) ;
#56 = FACE_OUTER_BOUND ( 'NONE', #72, .T. ) ;
#57 = DIRECTION ( 'NONE',  ( 4.275831445896958607E-31, 1.000000000000000000, 1.224646799147353207E-16 ) ) ;
#58 = PERSON ( 'UNSPECIFIED', 'UNSPECIFIED', 'UNSPECIFIED', ('UNSPECIFIED'), ('UNSPECIFIED'), ('UNSPECIFIED') ) ;
#59 = CYLINDRICAL_SURFACE ( 'NONE', #14, 0.8749999999999982236 ) ;
#60 = FACE_OUTER_BOUND ( 'NONE', #148, .T. ) ;
#61 = DATE_TIME_ROLE ( 'creation_date' ) ;
#62 = AXIS2_PLACEMENT_3D ( 'NONE', #170, #131, #101 ) ;
#63 = COORDINATED_UNIVERSAL_TIME_OFFSET ( 1, 0, .AHEAD. ) ;
#64 = LOCAL_TIME ( 11, 23, 0.0000000000000000000, #63 ) ;
#65 = DATE_AND_TIME ( #155, #80 ) ;
#66 = PRODUCT_DEFINITION ( 'UNKNOWN', '', #36, #82 ) ;
#67 = AXIS2_PLACEMENT_3D ( 'NONE', #158, #179, #48 ) ;
#68 = CC_DESIGN_PERSON_AND_ORGANIZATION_ASSIGNMENT ( #108, #125, ( #36 ) ) ;
#69 = CARTESIAN_POINT ( 'NONE',  ( 3.142333204958820020E-14, -1.102182119232617714E-15, 9.000000000000000000 ) ) ;
#70 = DIRECTION ( 'NONE',  ( 0.0000000000000000000, 1.000000000000000000, 0.0000000000000000000 ) ) ;
#71 = CARTESIAN_POINT ( 'NONE',  ( 3.142333204958820020E-14, -1.102182119232617714E-15, 9.000000000000000000 ) ) ;
#72 = EDGE_LOOP ( 'NONE', ( #3 ) ) ;
#73 = VERTEX_POINT ( 'NONE', #175 ) ;
#74 = CALENDAR_DATE ( 2021, 6, 10 ) ;
#75 = AXIS2_PLACEMENT_3D ( 'NONE', #117, #37, #168 ) ;
#76 = ORIENTED_EDGE ( 'NONE', *, *, #159, .F. ) ;
#77 = APPROVAL ( #149, 'UNSPECIFIED' ) ;
#78 = VERTEX_POINT ( 'NONE', #44 ) ;
#79 = CONICAL_SURFACE ( 'NONE', #162, 0.8749999999999954481, 1.047197551196592746 ) ;
#80 = LOCAL_TIME ( 11, 23, 0.0000000000000000000, #157 ) ;
#81 = APPROVAL_ROLE ( '' ) ;
#82 = DESIGN_CONTEXT ( 'detailed design', #55, 'design' ) ;
#83 = EDGE_LOOP ( 'NONE', ( #96 ) ) ;
#84 = VERTEX_POINT ( 'NONE', #169 ) ;
#85 = FACE_OUTER_BOUND ( 'NONE', #138, .T. ) ;
#86 = PERSON_AND_ORGANIZATION_ROLE ( 'creator' ) ;
#87 = APPROVAL_DATE_TIME ( #27, #46 ) ;
#88 = PRODUCT_DEFINITION_SHAPE ( 'NONE', 'NONE',  #66 ) ;
#89 = PERSON_AND_ORGANIZATION_ROLE ( 'creator' ) ;
#90 = AXIS2_PLACEMENT_3D ( 'NONE', #71, #12, #146 ) ;
#91 = DATE_TIME_ROLE ( 'classification_date' ) ;
#92 =( LENGTH_UNIT ( ) NAMED_UNIT ( * ) SI_UNIT ( .MILLI., .METRE. ) );
#93 = ADVANCED_FACE ( 'NONE', ( #116 ), #195, .F. ) ;
#94 = AXIS2_PLACEMENT_3D ( 'NONE', #104, #7, #57 ) ;
#95 = LOCAL_TIME ( 11, 23, 0.0000000000000000000, #107 ) ;
#96 = ORIENTED_EDGE ( 'NONE', *, *, #199, .T. ) ;
#97 = UNCERTAINTY_MEASURE_WITH_UNIT (LENGTH_MEASURE( 1.000000000000000082E-05 ), #92, 'distance_accuracy_value', 'NONE');
#98 = APPROVAL_STATUS ( 'not_yet_approved' ) ;
#99 = ADVANCED_FACE ( 'NONE', ( #85 ), #79, .T. ) ;
#100 = DIRECTION ( 'NONE',  ( -3.491481338843133355E-15, 1.224646799147353207E-16, -1.000000000000000000 ) ) ;
#101 = DIRECTION ( 'NONE',  ( -4.275831445896958607E-31, -1.000000000000000000, -1.224646799147353207E-16 ) ) ;
#102 = VERTEX_POINT ( 'NONE', #167 ) ;
#103 = DIRECTION ( 'NONE',  ( 4.275831445896958607E-31, 1.000000000000000000, 1.224646799147353207E-16 ) ) ;
#104 = CARTESIAN_POINT ( 'NONE',  ( 0.0000000000000000000, 0.0000000000000000000, 0.0000000000000000000 ) ) ;
#105 = DIRECTION ( 'NONE',  ( -3.491481338843133355E-15, 1.224646799147353207E-16, -1.000000000000000000 ) ) ;
#106 = FACE_OUTER_BOUND ( 'NONE', #145, .T. ) ;
#107 = COORDINATED_UNIVERSAL_TIME_OFFSET ( 1, 0, .AHEAD. ) ;
#108 = PERSON_AND_ORGANIZATION ( #58, #184 ) ;
#109 = EDGE_CURVE ( 'NONE', #24, #24, #22, .T. ) ;
#110 = PERSON_AND_ORGANIZATION ( #58, #184 ) ;
#111 =( GEOMETRIC_REPRESENTATION_CONTEXT ( 3 ) GLOBAL_UNCERTAINTY_ASSIGNED_CONTEXT ( ( #97 ) ) GLOBAL_UNIT_ASSIGNED_CONTEXT ( ( #92, #45, #114 ) ) REPRESENTATION_CONTEXT ( 'NONE', 'WORKASPACE' ) );
#112 = LOCAL_TIME ( 11, 23, 0.0000000000000000000, #13 ) ;
#113 = SHAPE_DEFINITION_REPRESENTATION ( #88, #30 ) ;
#114 =( NAMED_UNIT ( * ) SI_UNIT ( $, .STERADIAN. ) SOLID_ANGLE_UNIT ( ) );
#115 = CLOSED_SHELL ( 'NONE', ( #93, #165, #16, #43 ) ) ;
#116 = FACE_OUTER_BOUND ( 'NONE', #188, .T. ) ;
#117 = CARTESIAN_POINT ( 'NONE',  ( 1.326762908760390423E-13, 5.061689266483700319E-33, 38.00000000000000000 ) ) ;
#118 = PLANE ( 'NONE',  #62 ) ;
#119 = CARTESIAN_POINT ( 'NONE',  ( 0.0000000000000000000, 0.0000000000000000000, 0.0000000000000000000 ) ) ;
#120 = ORIENTED_EDGE ( 'NONE', *, *, #199, .F. ) ;
#121 = DIRECTION ( 'NONE',  ( -3.491481338843133355E-15, 1.224646799147353207E-16, -1.000000000000000000 ) ) ;
#122 = DIRECTION ( 'NONE',  ( -3.491481338843133355E-15, 1.224646799147353207E-16, -1.000000000000000000 ) ) ;
#123 = CONICAL_SURFACE ( 'NONE', #143, 0.6750000000000000444, 0.7853981633974512766 ) ;
#124 = CALENDAR_DATE ( 2021, 6, 10 ) ;
#125 = PERSON_AND_ORGANIZATION_ROLE ( 'design_supplier' ) ;
#126 = LOCAL_TIME ( 11, 23, 0.0000000000000000000, #161 ) ;
#127 = CIRCLE ( 'NONE', #19, 0.6750000000000000444 ) ;
#128 = PRODUCT_RELATED_PRODUCT_CATEGORY ( 'detail', '', ( #182 ) ) ;
#129 = CIRCLE ( 'NONE', #29, 0.8749999999999954481 ) ;
#130 = PLANE ( 'NONE',  #75 ) ;
#131 = DIRECTION ( 'NONE',  ( 3.491481338843133355E-15, -1.224646799147353207E-16, 1.000000000000000000 ) ) ;
#132 = DIRECTION ( 'NONE',  ( 0.0000000000000000000, 1.000000000000000000, 0.0000000000000000000 ) ) ;
#133 = ORIENTED_EDGE ( 'NONE', *, *, #11, .F. ) ;
#134 = CC_DESIGN_PERSON_AND_ORGANIZATION_ASSIGNMENT ( #15, #154, ( #47 ) ) ;
#135 = CARTESIAN_POINT ( 'NONE',  ( 1.319779946082704535E-13, 0.8749999999999953371, 37.79999999999999716 ) ) ;
#136 = APPROVAL_PERSON_ORGANIZATION ( #18, #140, #81 ) ;
#137 = APPROVAL_ROLE ( '' ) ;
#138 = EDGE_LOOP ( 'NONE', ( #194 ) ) ;
#139 = MANIFOLD_SOLID_BREP ( 'Corps-Déplacer/Copier1[2]', #4 ) ;
#140 = APPROVAL ( #98, 'UNSPECIFIED' ) ;
#141 = AXIS2_PLACEMENT_3D ( 'NONE', #25, #180, #166 ) ;
#142 = APPROVAL_DATE_TIME ( #49, #140 ) ;
#143 = AXIS2_PLACEMENT_3D ( 'NONE', #196, #100, #51 ) ;
#144 = DIRECTION ( 'NONE',  ( -3.491481338843133355E-15, 1.224646799147353207E-16, -1.000000000000000000 ) ) ;
#145 = EDGE_LOOP ( 'NONE', ( #76 ) ) ;
#146 = DIRECTION ( 'NONE',  ( 0.0000000000000000000, 1.000000000000000000, 0.0000000000000000000 ) ) ;
#147 = CARTESIAN_POINT ( 'NONE',  ( 1.763831729495194094E-15, -6.186688892561995008E-17, 0.5051814855409256788 ) ) ;
#148 = EDGE_LOOP ( 'NONE', ( #133 ) ) ;
#149 = APPROVAL_STATUS ( 'not_yet_approved' ) ;
#150 = PERSON_AND_ORGANIZATION ( #58, #184 ) ;
#151 = SECURITY_CLASSIFICATION_LEVEL ( 'unclassified' ) ;
#152 = PERSON_AND_ORGANIZATION ( #58, #184 ) ;
#153 = CC_DESIGN_DATE_AND_TIME_ASSIGNMENT ( #190, #61, ( #66 ) ) ;
#154 = PERSON_AND_ORGANIZATION_ROLE ( 'classification_officer' ) ;
#155 = CALENDAR_DATE ( 2021, 6, 10 ) ;
#156 = APPROVAL_DATE_TIME ( #191, #77 ) ;
#157 = COORDINATED_UNIVERSAL_TIME_OFFSET ( 1, 0, .AHEAD. ) ;
#158 = CARTESIAN_POINT ( 'NONE',  ( 0.0000000000000000000, 0.0000000000000000000, 0.0000000000000000000 ) ) ;
#159 = EDGE_CURVE ( 'NONE', #84, #84, #173, .T. ) ;
#160 = ORIENTED_EDGE ( 'NONE', *, *, #159, .T. ) ;
#161 = COORDINATED_UNIVERSAL_TIME_OFFSET ( 1, 0, .AHEAD. ) ;
#162 = AXIS2_PLACEMENT_3D ( 'NONE', #147, #53, #33 ) ;
#163 = EDGE_LOOP ( 'NONE', ( #200 ) ) ;
#164 = APPLICATION_PROTOCOL_DEFINITION ( 'international standard', 'config_control_design', 1994, #55 ) ;
#165 = ADVANCED_FACE ( 'NONE', ( #186, #56 ), #59, .T. ) ;
#166 = DIRECTION ( 'NONE',  ( -4.275831445896958607E-31, -1.000000000000000000, -1.224646799147353207E-16 ) ) ;
#167 = CARTESIAN_POINT ( 'NONE',  ( 1.763831729495194488E-15, 0.8749999999999953371, 0.5051814855409257898 ) ) ;
#168 = DIRECTION ( 'NONE',  ( 4.275831445896958607E-31, 1.000000000000000000, 1.224646799147353207E-16 ) ) ;
#169 = CARTESIAN_POINT ( 'NONE',  ( 3.142333204958820020E-14, 0.8749999999999953371, 9.000000000000000000 ) ) ;
#170 = CARTESIAN_POINT ( 'NONE',  ( 3.142333204958820020E-14, 6.561449049145583244E-33, 9.000000000000000000 ) ) ;
#171 = APPROVAL_STATUS ( 'not_yet_approved' ) ;
#172 = EDGE_LOOP ( 'NONE', ( #120 ) ) ;
#173 = CIRCLE ( 'NONE', #90, 0.8749999999999964473 ) ;
#174 = APPROVAL_PERSON_ORGANIZATION ( #110, #46, #202 ) ;
#175 = CARTESIAN_POINT ( 'NONE',  ( 1.326762908760390423E-13, 0.6749999999999953815, 38.00000000000000000 ) ) ;
#176 = CC_DESIGN_PERSON_AND_ORGANIZATION_ASSIGNMENT ( #152, #89, ( #36 ) ) ;
#177 = CC_DESIGN_APPROVAL ( #140, ( #66 ) ) ;
#178 = CC_DESIGN_APPROVAL ( #77, ( #47 ) ) ;
#179 = DIRECTION ( 'NONE',  ( 0.0000000000000000000, 0.0000000000000000000, 1.000000000000000000 ) ) ;
#180 = DIRECTION ( 'NONE',  ( 3.491481338843133355E-15, -1.224646799147353207E-16, 1.000000000000000000 ) ) ;
#181 = CC_DESIGN_PERSON_AND_ORGANIZATION_ASSIGNMENT ( #2, #50, ( #182 ) ) ;
#182 = PRODUCT ( '53608', '53608', '', ( #20 ) ) ;
#183 = DIRECTION ( 'NONE',  ( 0.0000000000000000000, 1.000000000000000000, 0.0000000000000000000 ) ) ;
#184 = ORGANIZATION ( 'UNSPECIFIED', 'UNSPECIFIED', '' ) ;
#185 = CC_DESIGN_SECURITY_CLASSIFICATION ( #47, ( #36 ) ) ;
#186 = FACE_OUTER_BOUND ( 'NONE', #163, .T. ) ;
#187 = FACE_OUTER_BOUND ( 'NONE', #172, .T. ) ;
#188 = EDGE_LOOP ( 'NONE', ( #42 ) ) ;
#189 = CARTESIAN_POINT ( 'NONE',  ( 1.326762908760390423E-13, -4.653657836759941941E-15, 38.00000000000000000 ) ) ;
#190 = DATE_AND_TIME ( #201, #95 ) ;
#191 = DATE_AND_TIME ( #124, #112 ) ;
#192 = AXIS2_PLACEMENT_3D ( 'NONE', #21, #144, #183 ) ;
#193 = CALENDAR_DATE ( 2021, 6, 10 ) ;
#194 = ORIENTED_EDGE ( 'NONE', *, *, #11, .T. ) ;
#195 = PLANE ( 'NONE',  #141 ) ;
#196 = CARTESIAN_POINT ( 'NONE',  ( 1.326762908760390423E-13, -4.653657836759941941E-15, 38.00000000000000000 ) ) ;
#197 = AXIS2_PLACEMENT_3D ( 'NONE', #69, #38, #132 ) ;
#198 = CARTESIAN_POINT ( 'NONE',  ( 1.763831729495194094E-15, -6.186688892561995008E-17, 0.5051814855409256788 ) ) ;
#199 = EDGE_CURVE ( 'NONE', #73, #73, #127, .T. ) ;
#200 = ORIENTED_EDGE ( 'NONE', *, *, #203, .F. ) ;
#201 = CALENDAR_DATE ( 2021, 6, 10 ) ;
#202 = APPROVAL_ROLE ( '' ) ;
#203 = EDGE_CURVE ( 'NONE', #78, #78, #35, .T. ) ;
ENDSEC;
END-ISO-10303-21;
