ISO-10303-21;
HEADER;
FILE_DESCRIPTION (( 'STEP AP203' ),
    '1' );
FILE_NAME ('53607.step',
    '2021-10-06T09:23:00',
    ( '' ),
    ( '' ),
    'SwSTEP 2.0',
    'SolidWorks 2019',
    '' );
FILE_SCHEMA (( 'CONFIG_CONTROL_DESIGN' ));
ENDSEC;

DATA;
#1 = CC_DESIGN_DATE_AND_TIME_ASSIGNMENT ( #156, #3, ( #48 ) ) ;
#2 = PRODUCT ( '53607', '53607', '', ( #101 ) ) ;
#3 = DATE_TIME_ROLE ( 'classification_date' ) ;
#4 = DIRECTION ( 'NONE',  ( 3.491481338843133355E-15, -1.224646799147353207E-16, 1.000000000000000000 ) ) ;
#5 = CIRCLE ( 'NONE', #83, 0.8499999999999954259 ) ;
#6 = DIRECTION ( 'NONE',  ( 0.0000000000000000000, 1.000000000000000000, 0.0000000000000000000 ) ) ;
#7 = DIRECTION ( 'NONE',  ( -3.491481338843133355E-15, 1.224646799147353207E-16, -1.000000000000000000 ) ) ;
#8 = FACE_OUTER_BOUND ( 'NONE', #138, .T. ) ;
#9 = CC_DESIGN_PERSON_AND_ORGANIZATION_ASSIGNMENT ( #75, #67, ( #2 ) ) ;
#10 = DIRECTION ( 'NONE',  ( -3.491481338843133355E-15, 1.224646799147353207E-16, -1.000000000000000000 ) ) ;
#11 = MANIFOLD_SOLID_BREP ( 'Corps-Déplacer/Copier1[1]', #180 ) ;
#12 = LOCAL_TIME ( 11, 23, 0.0000000000000000000, #160 ) ;
#13 = DATE_AND_TIME ( #148, #12 ) ;
#14 = ORIENTED_EDGE ( 'NONE', *, *, #111, .T. ) ;
#15 = APPROVAL_PERSON_ORGANIZATION ( #175, #135, #191 ) ;
#16 = ORIENTED_EDGE ( 'NONE', *, *, #193, .F. ) ;
#17 = COORDINATED_UNIVERSAL_TIME_OFFSET ( 1, 0, .AHEAD. ) ;
#18 = PERSON_AND_ORGANIZATION ( #24, #25 ) ;
#19 = CALENDAR_DATE ( 2021, 6, 10 ) ;
#20 = EDGE_CURVE ( 'NONE', #42, #42, #34, .T. ) ;
#21 = DESIGN_CONTEXT ( 'detailed design', #173, 'design' ) ;
#22 = DATE_AND_TIME ( #124, #39 ) ;
#23 = CYLINDRICAL_SURFACE ( 'NONE', #52, 0.8499999999999959810 ) ;
#24 = PERSON ( 'UNSPECIFIED', 'UNSPECIFIED', 'UNSPECIFIED', ('UNSPECIFIED'), ('UNSPECIFIED'), ('UNSPECIFIED') ) ;
#25 = ORGANIZATION ( 'UNSPECIFIED', 'UNSPECIFIED', '' ) ;
#26 = FACE_OUTER_BOUND ( 'NONE', #91, .T. ) ;
#27 = APPLICATION_PROTOCOL_DEFINITION ( 'international standard', 'config_control_design', 1994, #63 ) ;
#28 = FACE_OUTER_BOUND ( 'NONE', #202, .T. ) ;
#29 = CARTESIAN_POINT ( 'NONE',  ( 3.142333204958820020E-14, 6.373979076312851043E-33, 9.000000000000000000 ) ) ;
#30 = EDGE_LOOP ( 'NONE', ( #33 ) ) ;
#31 = CARTESIAN_POINT ( 'NONE',  ( 3.142333204958820020E-14, -1.102182119232617714E-15, 9.000000000000000000 ) ) ;
#32 = CONICAL_SURFACE ( 'NONE', #141, 0.6500000000000000222, 0.7853981633974512766 ) ;
#33 = ORIENTED_EDGE ( 'NONE', *, *, #46, .F. ) ;
#34 = CIRCLE ( 'NONE', #192, 0.8499999999999964251 ) ;
#35 = SHAPE_DEFINITION_REPRESENTATION ( #179, #168 ) ;
#36 = CARTESIAN_POINT ( 'NONE',  ( 0.0000000000000000000, 0.0000000000000000000, 0.0000000000000000000 ) ) ;
#37 = COORDINATED_UNIVERSAL_TIME_OFFSET ( 1, 0, .AHEAD. ) ;
#38 = CARTESIAN_POINT ( 'NONE',  ( 1.713436537223902552E-15, -6.009926352774508591E-17, 0.4907477288111848357 ) ) ;
#39 = LOCAL_TIME ( 11, 23, 0.0000000000000000000, #37 ) ;
#40 = CC_DESIGN_PERSON_AND_ORGANIZATION_ASSIGNMENT ( #94, #164, ( #48 ) ) ;
#41 = CARTESIAN_POINT ( 'NONE',  ( 3.142333204958820020E-14, 0.8499999999999953149, 9.000000000000000000 ) ) ;
#42 = VERTEX_POINT ( 'NONE', #126 ) ;
#43 = PLANE ( 'NONE',  #203 ) ;
#44 = AXIS2_PLACEMENT_3D ( 'NONE', #58, #60, #185 ) ;
#45 = EDGE_LOOP ( 'NONE', ( #14 ) ) ;
#46 = EDGE_CURVE ( 'NONE', #115, #115, #5, .T. ) ;
#47 = ORIENTED_EDGE ( 'NONE', *, *, #46, .T. ) ;
#48 = SECURITY_CLASSIFICATION ( '', '', #54 ) ;
#49 = CARTESIAN_POINT ( 'NONE',  ( 1.713436537223902552E-15, -6.009926352774508591E-17, 0.4907477288111848357 ) ) ;
#50 = APPLICATION_PROTOCOL_DEFINITION ( 'international standard', 'config_control_design', 1994, #173 ) ;
#51 = DATE_AND_TIME ( #108, #134 ) ;
#52 = AXIS2_PLACEMENT_3D ( 'NONE', #36, #10, #166 ) ;
#53 = APPROVAL_DATE_TIME ( #22, #70 ) ;
#54 = SECURITY_CLASSIFICATION_LEVEL ( 'unclassified' ) ;
#55 = ORIENTED_EDGE ( 'NONE', *, *, #193, .T. ) ;
#56 = UNCERTAINTY_MEASURE_WITH_UNIT (LENGTH_MEASURE( 1.000000000000000082E-05 ), #196, 'distance_accuracy_value', 'NONE');
#57 = PERSON_AND_ORGANIZATION_ROLE ( 'creator' ) ;
#58 = CARTESIAN_POINT ( 'NONE',  ( 1.326762908760390423E-13, -4.653657836759941941E-15, 38.00000000000000000 ) ) ;
#59 = PERSON_AND_ORGANIZATION_ROLE ( 'design_supplier' ) ;
#60 = DIRECTION ( 'NONE',  ( -3.491481338843133355E-15, 1.224646799147353207E-16, -1.000000000000000000 ) ) ;
#61 = CARTESIAN_POINT ( 'NONE',  ( 1.319779946082704535E-13, -4.629164900776995227E-15, 37.79999999999999716 ) ) ;
#62 = CIRCLE ( 'NONE', #71, 0.8499999999999964251 ) ;
#63 = APPLICATION_CONTEXT ( 'configuration controlled 3d designs of mechanical parts and assemblies' ) ;
#64 = FACE_OUTER_BOUND ( 'NONE', #189, .T. ) ;
#65 = FACE_OUTER_BOUND ( 'NONE', #152, .T. ) ;
#66 = FACE_BOUND ( 'NONE', #155, .T. ) ;
#67 = PERSON_AND_ORGANIZATION_ROLE ( 'design_owner' ) ;
#68 = AXIS2_PLACEMENT_3D ( 'NONE', #116, #128, #117 ) ;
#69 = CALENDAR_DATE ( 2021, 6, 10 ) ;
#70 = APPROVAL ( #81, 'UNSPECIFIED' ) ;
#71 = AXIS2_PLACEMENT_3D ( 'NONE', #74, #131, #201 ) ;
#72 =( NAMED_UNIT ( * ) PLANE_ANGLE_UNIT ( ) SI_UNIT ( $, .RADIAN. ) );
#73 = FACE_OUTER_BOUND ( 'NONE', #45, .T. ) ;
#74 = CARTESIAN_POINT ( 'NONE',  ( 3.142333204958820020E-14, -1.102182119232617714E-15, 9.000000000000000000 ) ) ;
#75 = PERSON_AND_ORGANIZATION ( #24, #25 ) ;
#76 = DIRECTION ( 'NONE',  ( 4.531599869146461927E-31, 1.000000000000000000, 1.275531967630012148E-16 ) ) ;
#77 = PRODUCT_DEFINITION_FORMATION_WITH_SPECIFIED_SOURCE ( 'ANY', '', #2, .NOT_KNOWN. ) ;
#78 = FACE_OUTER_BOUND ( 'NONE', #174, .T. ) ;
#79 = ORIENTED_EDGE ( 'NONE', *, *, #111, .F. ) ;
#80 = MANIFOLD_SOLID_BREP ( 'Corps-Déplacer/Copier1[2]', #154 ) ;
#81 = APPROVAL_STATUS ( 'not_yet_approved' ) ;
#82 = PERSON_AND_ORGANIZATION_ROLE ( 'creator' ) ;
#83 = AXIS2_PLACEMENT_3D ( 'NONE', #49, #120, #76 ) ;
#84 = APPROVAL_ROLE ( '' ) ;
#85 = PERSON_AND_ORGANIZATION ( #24, #25 ) ;
#86 = CYLINDRICAL_SURFACE ( 'NONE', #125, 0.8499999999999980904 ) ;
#87 = CARTESIAN_POINT ( 'NONE',  ( 1.319779946082704535E-13, 0.8499999999999953149, 37.79999999999999716 ) ) ;
#88 = DIRECTION ( 'NONE',  ( -3.491481338843133355E-15, 1.224646799147353207E-16, -1.000000000000000000 ) ) ;
#89 = EDGE_LOOP ( 'NONE', ( #118 ) ) ;
#90 = DATE_AND_TIME ( #69, #130 ) ;
#91 = EDGE_LOOP ( 'NONE', ( #171 ) ) ;
#92 = ADVANCED_FACE ( 'NONE', ( #78, #66 ), #32, .T. ) ;
#93 = DIRECTION ( 'NONE',  ( -3.491481338843133355E-15, 1.224646799147353207E-16, -1.000000000000000000 ) ) ;
#94 = PERSON_AND_ORGANIZATION ( #24, #25 ) ;
#95 = APPROVAL_ROLE ( '' ) ;
#96 = ADVANCED_FACE ( 'NONE', ( #163, #26 ), #86, .T. ) ;
#97 = DIRECTION ( 'NONE',  ( -4.531599869146461927E-31, -1.000000000000000000, -1.275531967630012148E-16 ) ) ;
#98 =( GEOMETRIC_REPRESENTATION_CONTEXT ( 3 ) GLOBAL_UNCERTAINTY_ASSIGNED_CONTEXT ( ( #56 ) ) GLOBAL_UNIT_ASSIGNED_CONTEXT ( ( #196, #72, #167 ) ) REPRESENTATION_CONTEXT ( 'NONE', 'WORKASPACE' ) );
#99 = DIRECTION ( 'NONE',  ( -4.275831445896958607E-31, -1.000000000000000000, -1.224646799147353207E-16 ) ) ;
#100 = CC_DESIGN_DATE_AND_TIME_ASSIGNMENT ( #90, #137, ( #178 ) ) ;
#101 = MECHANICAL_CONTEXT ( 'NONE', #63, 'mechanical' ) ;
#102 = DIRECTION ( 'NONE',  ( 3.491481338843133355E-15, -1.224646799147353207E-16, 1.000000000000000000 ) ) ;
#103 = DIRECTION ( 'NONE',  ( 1.000000000000000000, 0.0000000000000000000, 0.0000000000000000000 ) ) ;
#104 = DIRECTION ( 'NONE',  ( -3.491481338843133355E-15, 1.224646799147353207E-16, -1.000000000000000000 ) ) ;
#105 = ORIENTED_EDGE ( 'NONE', *, *, #170, .F. ) ;
#106 = CIRCLE ( 'NONE', #110, 0.8499999999999999778 ) ;
#107 = PERSON_AND_ORGANIZATION ( #24, #25 ) ;
#108 = CALENDAR_DATE ( 2021, 6, 10 ) ;
#109 = APPROVAL_DATE_TIME ( #51, #135 ) ;
#110 = AXIS2_PLACEMENT_3D ( 'NONE', #61, #104, #169 ) ;
#111 = EDGE_CURVE ( 'NONE', #113, #113, #62, .T. ) ;
#112 = CIRCLE ( 'NONE', #44, 0.6500000000000000222 ) ;
#113 = VERTEX_POINT ( 'NONE', #41 ) ;
#114 = ADVANCED_FACE ( 'NONE', ( #161, #73 ), #23, .T. ) ;
#115 = VERTEX_POINT ( 'NONE', #195 ) ;
#116 = CARTESIAN_POINT ( 'NONE',  ( 1.326762908760390423E-13, 4.874219293650967434E-33, 38.00000000000000000 ) ) ;
#117 = DIRECTION ( 'NONE',  ( 4.275831445896958607E-31, 1.000000000000000000, 1.224646799147353207E-16 ) ) ;
#118 = ORIENTED_EDGE ( 'NONE', *, *, #20, .F. ) ;
#119 = CC_DESIGN_PERSON_AND_ORGANIZATION_ASSIGNMENT ( #85, #59, ( #77 ) ) ;
#120 = DIRECTION ( 'NONE',  ( -3.491481338843133355E-15, 1.224646799147353207E-16, -1.000000000000000000 ) ) ;
#121 = CC_DESIGN_APPROVAL ( #129, ( #48 ) ) ;
#122 = COORDINATED_UNIVERSAL_TIME_OFFSET ( 1, 0, .AHEAD. ) ;
#123 = APPROVAL_PERSON_ORGANIZATION ( #107, #70, #84 ) ;
#124 = CALENDAR_DATE ( 2021, 6, 10 ) ;
#125 = AXIS2_PLACEMENT_3D ( 'NONE', #159, #7, #149 ) ;
#126 = CARTESIAN_POINT ( 'NONE',  ( 3.142333204958820020E-14, 0.8499999999999953149, 9.000000000000000000 ) ) ;
#127 = ADVANCED_FACE ( 'NONE', ( #65 ), #145, .F. ) ;
#128 = DIRECTION ( 'NONE',  ( -3.491481338843133355E-15, 1.224646799147353207E-16, -1.000000000000000000 ) ) ;
#129 = APPROVAL ( #142, 'UNSPECIFIED' ) ;
#130 = LOCAL_TIME ( 11, 23, 0.0000000000000000000, #122 ) ;
#131 = DIRECTION ( 'NONE',  ( -3.491481338843133355E-15, 1.224646799147353207E-16, -1.000000000000000000 ) ) ;
#132 = ADVANCED_FACE ( 'NONE', ( #8 ), #172, .T. ) ;
#133 = CARTESIAN_POINT ( 'NONE',  ( 1.326762908760390423E-13, -4.653657836759941941E-15, 38.00000000000000000 ) ) ;
#134 = LOCAL_TIME ( 11, 23, 0.0000000000000000000, #17 ) ;
#135 = APPROVAL ( #139, 'UNSPECIFIED' ) ;
#136 = DIRECTION ( 'NONE',  ( 0.0000000000000000000, 1.000000000000000000, 0.0000000000000000000 ) ) ;
#137 = DATE_TIME_ROLE ( 'creation_date' ) ;
#138 = EDGE_LOOP ( 'NONE', ( #47 ) ) ;
#139 = APPROVAL_STATUS ( 'not_yet_approved' ) ;
#140 = PERSON_AND_ORGANIZATION ( #24, #25 ) ;
#141 = AXIS2_PLACEMENT_3D ( 'NONE', #133, #93, #6 ) ;
#142 = APPROVAL_STATUS ( 'not_yet_approved' ) ;
#143 = AXIS2_PLACEMENT_3D ( 'NONE', #29, #4, #186 ) ;
#144 = VERTEX_POINT ( 'NONE', #183 ) ;
#145 = PLANE ( 'NONE',  #68 ) ;
#146 = DIRECTION ( 'NONE',  ( 0.0000000000000000000, 0.0000000000000000000, 1.000000000000000000 ) ) ;
#147 = PLANE ( 'NONE',  #143 ) ;
#148 = CALENDAR_DATE ( 2021, 6, 10 ) ;
#149 = DIRECTION ( 'NONE',  ( 4.275831445896958607E-31, 1.000000000000000000, 1.224646799147353207E-16 ) ) ;
#150 = ADVANCED_FACE ( 'NONE', ( #28 ), #43, .F. ) ;
#151 = ORIENTED_EDGE ( 'NONE', *, *, #20, .T. ) ;
#152 = EDGE_LOOP ( 'NONE', ( #16 ) ) ;
#153 = CC_DESIGN_SECURITY_CLASSIFICATION ( #48, ( #77 ) ) ;
#154 = CLOSED_SHELL ( 'NONE', ( #132, #114, #190 ) ) ;
#155 = EDGE_LOOP ( 'NONE', ( #55 ) ) ;
#156 = DATE_AND_TIME ( #19, #158 ) ;
#157 = CC_DESIGN_PERSON_AND_ORGANIZATION_ASSIGNMENT ( #194, #57, ( #77 ) ) ;
#158 = LOCAL_TIME ( 11, 23, 0.0000000000000000000, #181 ) ;
#159 = CARTESIAN_POINT ( 'NONE',  ( 0.0000000000000000000, 0.0000000000000000000, 0.0000000000000000000 ) ) ;
#160 = COORDINATED_UNIVERSAL_TIME_OFFSET ( 1, 0, .AHEAD. ) ;
#161 = FACE_OUTER_BOUND ( 'NONE', #30, .T. ) ;
#162 = CC_DESIGN_APPROVAL ( #135, ( #178 ) ) ;
#163 = FACE_OUTER_BOUND ( 'NONE', #89, .T. ) ;
#164 = PERSON_AND_ORGANIZATION_ROLE ( 'classification_officer' ) ;
#165 = APPROVAL_DATE_TIME ( #13, #129 ) ;
#166 = DIRECTION ( 'NONE',  ( 4.275831445896958607E-31, 1.000000000000000000, 1.224646799147353207E-16 ) ) ;
#167 =( NAMED_UNIT ( * ) SI_UNIT ( $, .STERADIAN. ) SOLID_ANGLE_UNIT ( ) );
#168 = ADVANCED_BREP_SHAPE_REPRESENTATION ( '53607', ( #11, #80, #176 ), #98 ) ;
#169 = DIRECTION ( 'NONE',  ( 0.0000000000000000000, 1.000000000000000000, 0.0000000000000000000 ) ) ;
#170 = EDGE_CURVE ( 'NONE', #182, #182, #106, .T. ) ;
#171 = ORIENTED_EDGE ( 'NONE', *, *, #170, .T. ) ;
#172 = CONICAL_SURFACE ( 'NONE', #198, 0.8499999999999954259, 1.047197551196592746 ) ;
#173 = APPLICATION_CONTEXT ( 'configuration controlled 3d designs of mechanical parts and assemblies' ) ;
#174 = EDGE_LOOP ( 'NONE', ( #105 ) ) ;
#175 = PERSON_AND_ORGANIZATION ( #24, #25 ) ;
#176 = AXIS2_PLACEMENT_3D ( 'NONE', #187, #146, #103 ) ;
#177 = PRODUCT_RELATED_PRODUCT_CATEGORY ( 'detail', '', ( #2 ) ) ;
#178 = PRODUCT_DEFINITION ( 'UNKNOWN', '', #77, #21 ) ;
#179 = PRODUCT_DEFINITION_SHAPE ( 'NONE', 'NONE',  #178 ) ;
#180 = CLOSED_SHELL ( 'NONE', ( #150, #96, #92, #127 ) ) ;
#181 = COORDINATED_UNIVERSAL_TIME_OFFSET ( 1, 0, .AHEAD. ) ;
#182 = VERTEX_POINT ( 'NONE', #87 ) ;
#183 = CARTESIAN_POINT ( 'NONE',  ( 1.326762908760390423E-13, 0.6499999999999953593, 38.00000000000000000 ) ) ;
#184 = CC_DESIGN_APPROVAL ( #70, ( #77 ) ) ;
#185 = DIRECTION ( 'NONE',  ( 0.0000000000000000000, 1.000000000000000000, 0.0000000000000000000 ) ) ;
#186 = DIRECTION ( 'NONE',  ( -4.275831445896958607E-31, -1.000000000000000000, -1.224646799147353207E-16 ) ) ;
#187 = CARTESIAN_POINT ( 'NONE',  ( 0.0000000000000000000, 0.0000000000000000000, 0.0000000000000000000 ) ) ;
#188 = APPROVAL_PERSON_ORGANIZATION ( #18, #129, #95 ) ;
#189 = EDGE_LOOP ( 'NONE', ( #79 ) ) ;
#190 = ADVANCED_FACE ( 'NONE', ( #64 ), #147, .T. ) ;
#191 = APPROVAL_ROLE ( '' ) ;
#192 = AXIS2_PLACEMENT_3D ( 'NONE', #31, #88, #136 ) ;
#193 = EDGE_CURVE ( 'NONE', #144, #144, #112, .T. ) ;
#194 = PERSON_AND_ORGANIZATION ( #24, #25 ) ;
#195 = CARTESIAN_POINT ( 'NONE',  ( 1.713436537223902947E-15, 0.8499999999999953149, 0.4907477288111849467 ) ) ;
#196 =( LENGTH_UNIT ( ) NAMED_UNIT ( * ) SI_UNIT ( .MILLI., .METRE. ) );
#197 = DIRECTION ( 'NONE',  ( 3.491481338843133355E-15, -1.224646799147353207E-16, 1.000000000000000000 ) ) ;
#198 = AXIS2_PLACEMENT_3D ( 'NONE', #38, #197, #97 ) ;
#199 = CC_DESIGN_PERSON_AND_ORGANIZATION_ASSIGNMENT ( #140, #82, ( #178 ) ) ;
#200 = CARTESIAN_POINT ( 'NONE',  ( 3.142333204958820020E-14, 6.373979076312851043E-33, 9.000000000000000000 ) ) ;
#201 = DIRECTION ( 'NONE',  ( 0.0000000000000000000, 1.000000000000000000, 0.0000000000000000000 ) ) ;
#202 = EDGE_LOOP ( 'NONE', ( #151 ) ) ;
#203 = AXIS2_PLACEMENT_3D ( 'NONE', #200, #102, #99 ) ;
ENDSEC;
END-ISO-10303-21;
