ISO-10303-21;
HEADER;
FILE_DESCRIPTION (( 'STEP AP203' ),
    '1' );
FILE_NAME ('53606.step',
    '2021-10-06T09:22:59',
    ( '' ),
    ( '' ),
    'SwSTEP 2.0',
    'SolidWorks 2019',
    '' );
FILE_SCHEMA (( 'CONFIG_CONTROL_DESIGN' ));
ENDSEC;

DATA;
#1 = CC_DESIGN_PERSON_AND_ORGANIZATION_ASSIGNMENT ( #174, #29, ( #119 ) ) ;
#2 = VERTEX_POINT ( 'NONE', #3 ) ;
#3 = CARTESIAN_POINT ( 'NONE',  ( 3.142333204958820020E-14, 0.8249999999999952927, 9.000000000000000000 ) ) ;
#4 = CC_DESIGN_PERSON_AND_ORGANIZATION_ASSIGNMENT ( #153, #36, ( #116 ) ) ;
#5 = MANIFOLD_SOLID_BREP ( 'Corps-Déplacer/Copier1[2]', #83 ) ;
#6 = DIRECTION ( 'NONE',  ( -3.491481338843133355E-15, 1.224646799147353207E-16, -1.000000000000000000 ) ) ;
#7 = LOCAL_TIME ( 11, 22, 59.00000000000000000, #97 ) ;
#8 = DIRECTION ( 'NONE',  ( -3.491481338843133355E-15, 1.224646799147353207E-16, -1.000000000000000000 ) ) ;
#9 = CARTESIAN_POINT ( 'NONE',  ( 3.142333204958820020E-14, 6.186509103480118842E-33, 9.000000000000000000 ) ) ;
#10 = DIRECTION ( 'NONE',  ( 0.0000000000000000000, 1.000000000000000000, 0.0000000000000000000 ) ) ;
#11 = DIRECTION ( 'NONE',  ( 3.491481338843133355E-15, -1.224646799147353207E-16, 1.000000000000000000 ) ) ;
#12 = CARTESIAN_POINT ( 'NONE',  ( 3.142333204958820020E-14, 0.8249999999999952927, 9.000000000000000000 ) ) ;
#13 = LOCAL_TIME ( 11, 22, 59.00000000000000000, #155 ) ;
#14 = APPLICATION_PROTOCOL_DEFINITION ( 'international standard', 'config_control_design', 1994, #21 ) ;
#15 = MANIFOLD_SOLID_BREP ( 'Corps-Déplacer/Copier1[1]', #194 ) ;
#16 = EDGE_LOOP ( 'NONE', ( #96 ) ) ;
#17 = COORDINATED_UNIVERSAL_TIME_OFFSET ( 1, 0, .AHEAD. ) ;
#18 = PERSON_AND_ORGANIZATION_ROLE ( 'design_supplier' ) ;
#19 = ORIENTED_EDGE ( 'NONE', *, *, #113, .F. ) ;
#20 = APPROVAL_STATUS ( 'not_yet_approved' ) ;
#21 = APPLICATION_CONTEXT ( 'configuration controlled 3d designs of mechanical parts and assemblies' ) ;
#22 = SHAPE_DEFINITION_REPRESENTATION ( #92, #66 ) ;
#23 = APPROVAL_PERSON_ORGANIZATION ( #93, #32, #126 ) ;
#24 = ADVANCED_FACE ( 'NONE', ( #80, #64 ), #99, .T. ) ;
#25 = DIRECTION ( 'NONE',  ( 4.275831445896958607E-31, 1.000000000000000000, 1.224646799147353207E-16 ) ) ;
#26 = DIRECTION ( 'NONE',  ( 4.275831445896958607E-31, 1.000000000000000000, 1.224646799147353207E-16 ) ) ;
#27 = CARTESIAN_POINT ( 'NONE',  ( 1.319779946082704535E-13, -4.629164900776995227E-15, 37.79999999999999716 ) ) ;
#28 = FACE_OUTER_BOUND ( 'NONE', #51, .T. ) ;
#29 = PERSON_AND_ORGANIZATION_ROLE ( 'design_owner' ) ;
#30 = EDGE_LOOP ( 'NONE', ( #47 ) ) ;
#31 = APPROVAL_ROLE ( '' ) ;
#32 = APPROVAL ( #20, 'UNSPECIFIED' ) ;
#33 = ORIENTED_EDGE ( 'NONE', *, *, #108, .T. ) ;
#34 = CC_DESIGN_APPROVAL ( #32, ( #116 ) ) ;
#35 = EDGE_LOOP ( 'NONE', ( #154 ) ) ;
#36 = PERSON_AND_ORGANIZATION_ROLE ( 'creator' ) ;
#37 = CC_DESIGN_SECURITY_CLASSIFICATION ( #134, ( #163 ) ) ;
#38 = EDGE_CURVE ( 'NONE', #75, #75, #94, .T. ) ;
#39 = PLANE ( 'NONE',  #67 ) ;
#40 = CARTESIAN_POINT ( 'NONE',  ( 0.0000000000000000000, 0.0000000000000000000, 0.0000000000000000000 ) ) ;
#41 = FACE_OUTER_BOUND ( 'NONE', #190, .T. ) ;
#42 = DIRECTION ( 'NONE',  ( 0.0000000000000000000, 1.000000000000000000, 0.0000000000000000000 ) ) ;
#43 = FACE_OUTER_BOUND ( 'NONE', #139, .T. ) ;
#44 = AXIS2_PLACEMENT_3D ( 'NONE', #200, #196, #172 ) ;
#45 = PERSON_AND_ORGANIZATION ( #165, #176 ) ;
#46 = CALENDAR_DATE ( 2021, 6, 10 ) ;
#47 = ORIENTED_EDGE ( 'NONE', *, *, #128, .F. ) ;
#48 = CALENDAR_DATE ( 2021, 6, 10 ) ;
#49 = ORIENTED_EDGE ( 'NONE', *, *, #38, .F. ) ;
#50 = AXIS2_PLACEMENT_3D ( 'NONE', #40, #195, #145 ) ;
#51 = EDGE_LOOP ( 'NONE', ( #137 ) ) ;
#52 = APPROVAL_DATE_TIME ( #82, #173 ) ;
#53 = APPROVAL_STATUS ( 'not_yet_approved' ) ;
#54 = DATE_TIME_ROLE ( 'classification_date' ) ;
#55 = APPLICATION_CONTEXT ( 'configuration controlled 3d designs of mechanical parts and assemblies' ) ;
#56 = UNCERTAINTY_MEASURE_WITH_UNIT (LENGTH_MEASURE( 1.000000000000000082E-05 ), #201, 'distance_accuracy_value', 'NONE');
#57 = AXIS2_PLACEMENT_3D ( 'NONE', #167, #8, #26 ) ;
#58 = CARTESIAN_POINT ( 'NONE',  ( 1.326762908760390423E-13, 4.686749320818235233E-33, 38.00000000000000000 ) ) ;
#59 = CARTESIAN_POINT ( 'NONE',  ( 1.319779946082704535E-13, 0.8249999999999952927, 37.79999999999999716 ) ) ;
#60 = FACE_BOUND ( 'NONE', #16, .T. ) ;
#61 = CYLINDRICAL_SURFACE ( 'NONE', #50, 0.8249999999999958478 ) ;
#62 = VERTEX_POINT ( 'NONE', #12 ) ;
#63 = DIRECTION ( 'NONE',  ( 1.000000000000000000, 0.0000000000000000000, 0.0000000000000000000 ) ) ;
#64 = FACE_OUTER_BOUND ( 'NONE', #175, .T. ) ;
#65 = DIRECTION ( 'NONE',  ( 0.0000000000000000000, 0.0000000000000000000, 1.000000000000000000 ) ) ;
#66 = ADVANCED_BREP_SHAPE_REPRESENTATION ( '53606', ( #15, #5, #156 ), #115 ) ;
#67 = AXIS2_PLACEMENT_3D ( 'NONE', #58, #101, #25 ) ;
#68 = APPROVAL_ROLE ( '' ) ;
#69 = CALENDAR_DATE ( 2021, 6, 10 ) ;
#70 =( NAMED_UNIT ( * ) PLANE_ANGLE_UNIT ( ) SI_UNIT ( $, .RADIAN. ) );
#71 = LOCAL_TIME ( 11, 22, 59.00000000000000000, #17 ) ;
#72 = AXIS2_PLACEMENT_3D ( 'NONE', #166, #132, #120 ) ;
#73 = DIRECTION ( 'NONE',  ( -4.668921077302415797E-31, -1.000000000000000000, -1.314184451497588408E-16 ) ) ;
#74 = LOCAL_TIME ( 11, 22, 59.00000000000000000, #161 ) ;
#75 = VERTEX_POINT ( 'NONE', #136 ) ;
#76 = DATE_AND_TIME ( #127, #13 ) ;
#77 = APPROVAL ( #170, 'UNSPECIFIED' ) ;
#78 = ORIENTED_EDGE ( 'NONE', *, *, #113, .T. ) ;
#79 = CONICAL_SURFACE ( 'NONE', #192, 0.8249999999999954037, 1.047197551196592746 ) ;
#80 = FACE_OUTER_BOUND ( 'NONE', #30, .T. ) ;
#81 = EDGE_LOOP ( 'NONE', ( #19 ) ) ;
#82 = DATE_AND_TIME ( #48, #7 ) ;
#83 = CLOSED_SHELL ( 'NONE', ( #179, #140, #148 ) ) ;
#84 = DESIGN_CONTEXT ( 'detailed design', #21, 'design' ) ;
#85 = AXIS2_PLACEMENT_3D ( 'NONE', #146, #186, #88 ) ;
#86 = CARTESIAN_POINT ( 'NONE',  ( 3.142333204958820020E-14, -1.102182119232617714E-15, 9.000000000000000000 ) ) ;
#87 = PRODUCT_RELATED_PRODUCT_CATEGORY ( 'detail', '', ( #119 ) ) ;
#88 = DIRECTION ( 'NONE',  ( 4.668921077302415797E-31, 1.000000000000000000, 1.314184451497588408E-16 ) ) ;
#89 = COORDINATED_UNIVERSAL_TIME_OFFSET ( 1, 0, .AHEAD. ) ;
#90 = MECHANICAL_CONTEXT ( 'NONE', #55, 'mechanical' ) ;
#91 = ADVANCED_FACE ( 'NONE', ( #169 ), #39, .F. ) ;
#92 = PRODUCT_DEFINITION_SHAPE ( 'NONE', 'NONE',  #116 ) ;
#93 = PERSON_AND_ORGANIZATION ( #165, #176 ) ;
#94 = CIRCLE ( 'NONE', #149, 0.6250000000000000000 ) ;
#95 = PERSON_AND_ORGANIZATION_ROLE ( 'creator' ) ;
#96 = ORIENTED_EDGE ( 'NONE', *, *, #38, .T. ) ;
#97 = COORDINATED_UNIVERSAL_TIME_OFFSET ( 1, 0, .AHEAD. ) ;
#98 = APPROVAL_PERSON_ORGANIZATION ( #180, #173, #68 ) ;
#99 = CYLINDRICAL_SURFACE ( 'NONE', #57, 0.8249999999999982903 ) ;
#100 = AXIS2_PLACEMENT_3D ( 'NONE', #9, #122, #121 ) ;
#101 = DIRECTION ( 'NONE',  ( -3.491481338843133355E-15, 1.224646799147353207E-16, -1.000000000000000000 ) ) ;
#102 = CC_DESIGN_PERSON_AND_ORGANIZATION_ASSIGNMENT ( #151, #124, ( #134 ) ) ;
#103 = CIRCLE ( 'NONE', #85, 0.8249999999999954037 ) ;
#104 = VERTEX_POINT ( 'NONE', #168 ) ;
#105 = CARTESIAN_POINT ( 'NONE',  ( 3.142333204958820020E-14, -1.102182119232617714E-15, 9.000000000000000000 ) ) ;
#106 = CARTESIAN_POINT ( 'NONE',  ( 1.663041344952611011E-15, -5.833163812987022174E-17, 0.4763139720814440481 ) ) ;
#107 = AXIS2_PLACEMENT_3D ( 'NONE', #105, #198, #10 ) ;
#108 = EDGE_CURVE ( 'NONE', #202, #202, #171, .T. ) ;
#109 = EDGE_LOOP ( 'NONE', ( #78 ) ) ;
#110 = DATE_TIME_ROLE ( 'creation_date' ) ;
#111 = ORIENTED_EDGE ( 'NONE', *, *, #125, .F. ) ;
#112 = CARTESIAN_POINT ( 'NONE',  ( 0.0000000000000000000, 0.0000000000000000000, 0.0000000000000000000 ) ) ;
#113 = EDGE_CURVE ( 'NONE', #104, #104, #103, .T. ) ;
#114 = DATE_AND_TIME ( #46, #71 ) ;
#115 =( GEOMETRIC_REPRESENTATION_CONTEXT ( 3 ) GLOBAL_UNCERTAINTY_ASSIGNED_CONTEXT ( ( #56 ) ) GLOBAL_UNIT_ASSIGNED_CONTEXT ( ( #201, #70, #193 ) ) REPRESENTATION_CONTEXT ( 'NONE', 'WORKASPACE' ) );
#116 = PRODUCT_DEFINITION ( 'UNKNOWN', '', #163, #84 ) ;
#117 = DIRECTION ( 'NONE',  ( 0.0000000000000000000, 1.000000000000000000, 0.0000000000000000000 ) ) ;
#118 = FACE_OUTER_BOUND ( 'NONE', #35, .T. ) ;
#119 = PRODUCT ( '53606', '53606', '', ( #90 ) ) ;
#120 = DIRECTION ( 'NONE',  ( 0.0000000000000000000, 1.000000000000000000, 0.0000000000000000000 ) ) ;
#121 = DIRECTION ( 'NONE',  ( -4.275831445896958607E-31, -1.000000000000000000, -1.224646799147353207E-16 ) ) ;
#122 = DIRECTION ( 'NONE',  ( 3.491481338843133355E-15, -1.224646799147353207E-16, 1.000000000000000000 ) ) ;
#123 = CC_DESIGN_APPROVAL ( #173, ( #134 ) ) ;
#124 = PERSON_AND_ORGANIZATION_ROLE ( 'classification_officer' ) ;
#125 = EDGE_CURVE ( 'NONE', #62, #62, #199, .T. ) ;
#126 = APPROVAL_ROLE ( '' ) ;
#127 = CALENDAR_DATE ( 2021, 6, 10 ) ;
#128 = EDGE_CURVE ( 'NONE', #2, #2, #184, .T. ) ;
#129 = AXIS2_PLACEMENT_3D ( 'NONE', #27, #6, #130 ) ;
#130 = DIRECTION ( 'NONE',  ( 0.0000000000000000000, 1.000000000000000000, 0.0000000000000000000 ) ) ;
#131 = CC_DESIGN_DATE_AND_TIME_ASSIGNMENT ( #114, #110, ( #116 ) ) ;
#132 = DIRECTION ( 'NONE',  ( -3.491481338843133355E-15, 1.224646799147353207E-16, -1.000000000000000000 ) ) ;
#133 = DIRECTION ( 'NONE',  ( -3.491481338843133355E-15, 1.224646799147353207E-16, -1.000000000000000000 ) ) ;
#134 = SECURITY_CLASSIFICATION ( '', '', #135 ) ;
#135 = SECURITY_CLASSIFICATION_LEVEL ( 'unclassified' ) ;
#136 = CARTESIAN_POINT ( 'NONE',  ( 1.326762908760390423E-13, 0.6249999999999953371, 38.00000000000000000 ) ) ;
#137 = ORIENTED_EDGE ( 'NONE', *, *, #108, .F. ) ;
#138 = CC_DESIGN_PERSON_AND_ORGANIZATION_ASSIGNMENT ( #159, #95, ( #163 ) ) ;
#139 = EDGE_LOOP ( 'NONE', ( #111 ) ) ;
#140 = ADVANCED_FACE ( 'NONE', ( #183, #41 ), #61, .T. ) ;
#141 = LOCAL_TIME ( 11, 22, 59.00000000000000000, #89 ) ;
#142 = DATE_AND_TIME ( #189, #74 ) ;
#143 = ADVANCED_FACE ( 'NONE', ( #28, #60 ), #160, .T. ) ;
#144 = APPROVAL_PERSON_ORGANIZATION ( #203, #77, #31 ) ;
#145 = DIRECTION ( 'NONE',  ( 4.275831445896958607E-31, 1.000000000000000000, 1.224646799147353207E-16 ) ) ;
#146 = CARTESIAN_POINT ( 'NONE',  ( 1.663041344952611011E-15, -5.833163812987022174E-17, 0.4763139720814440481 ) ) ;
#147 = FACE_OUTER_BOUND ( 'NONE', #109, .T. ) ;
#148 = ADVANCED_FACE ( 'NONE', ( #43 ), #150, .T. ) ;
#149 = AXIS2_PLACEMENT_3D ( 'NONE', #164, #182, #42 ) ;
#150 = PLANE ( 'NONE',  #100 ) ;
#151 = PERSON_AND_ORGANIZATION ( #165, #176 ) ;
#152 = ORIENTED_EDGE ( 'NONE', *, *, #125, .T. ) ;
#153 = PERSON_AND_ORGANIZATION ( #165, #176 ) ;
#154 = ORIENTED_EDGE ( 'NONE', *, *, #128, .T. ) ;
#155 = COORDINATED_UNIVERSAL_TIME_OFFSET ( 1, 0, .AHEAD. ) ;
#156 = AXIS2_PLACEMENT_3D ( 'NONE', #112, #65, #63 ) ;
#157 = APPLICATION_PROTOCOL_DEFINITION ( 'international standard', 'config_control_design', 1994, #55 ) ;
#158 = DATE_AND_TIME ( #69, #141 ) ;
#159 = PERSON_AND_ORGANIZATION ( #165, #176 ) ;
#160 = CONICAL_SURFACE ( 'NONE', #72, 0.6250000000000000000, 0.7853981633974512766 ) ;
#161 = COORDINATED_UNIVERSAL_TIME_OFFSET ( 1, 0, .AHEAD. ) ;
#162 = APPROVAL_DATE_TIME ( #158, #77 ) ;
#163 = PRODUCT_DEFINITION_FORMATION_WITH_SPECIFIED_SOURCE ( 'ANY', '', #119, .NOT_KNOWN. ) ;
#164 = CARTESIAN_POINT ( 'NONE',  ( 1.326762908760390423E-13, -4.653657836759941941E-15, 38.00000000000000000 ) ) ;
#165 = PERSON ( 'UNSPECIFIED', 'UNSPECIFIED', 'UNSPECIFIED', ('UNSPECIFIED'), ('UNSPECIFIED'), ('UNSPECIFIED') ) ;
#166 = CARTESIAN_POINT ( 'NONE',  ( 1.326762908760390423E-13, -4.653657836759941941E-15, 38.00000000000000000 ) ) ;
#167 = CARTESIAN_POINT ( 'NONE',  ( 0.0000000000000000000, 0.0000000000000000000, 0.0000000000000000000 ) ) ;
#168 = CARTESIAN_POINT ( 'NONE',  ( 1.663041344952611405E-15, 0.8249999999999952927, 0.4763139720814441591 ) ) ;
#169 = FACE_OUTER_BOUND ( 'NONE', #177, .T. ) ;
#170 = APPROVAL_STATUS ( 'not_yet_approved' ) ;
#171 = CIRCLE ( 'NONE', #129, 0.8249999999999999556 ) ;
#172 = DIRECTION ( 'NONE',  ( -4.275831445896958607E-31, -1.000000000000000000, -1.224646799147353207E-16 ) ) ;
#173 = APPROVAL ( #53, 'UNSPECIFIED' ) ;
#174 = PERSON_AND_ORGANIZATION ( #165, #176 ) ;
#175 = EDGE_LOOP ( 'NONE', ( #33 ) ) ;
#176 = ORGANIZATION ( 'UNSPECIFIED', 'UNSPECIFIED', '' ) ;
#177 = EDGE_LOOP ( 'NONE', ( #49 ) ) ;
#178 = CC_DESIGN_PERSON_AND_ORGANIZATION_ASSIGNMENT ( #45, #18, ( #163 ) ) ;
#179 = ADVANCED_FACE ( 'NONE', ( #147 ), #79, .T. ) ;
#180 = PERSON_AND_ORGANIZATION ( #165, #176 ) ;
#181 = AXIS2_PLACEMENT_3D ( 'NONE', #86, #133, #117 ) ;
#182 = DIRECTION ( 'NONE',  ( -3.491481338843133355E-15, 1.224646799147353207E-16, -1.000000000000000000 ) ) ;
#183 = FACE_OUTER_BOUND ( 'NONE', #81, .T. ) ;
#184 = CIRCLE ( 'NONE', #107, 0.8249999999999964029 ) ;
#185 = PLANE ( 'NONE',  #44 ) ;
#186 = DIRECTION ( 'NONE',  ( -3.491481338843133355E-15, 1.224646799147353207E-16, -1.000000000000000000 ) ) ;
#187 = CC_DESIGN_APPROVAL ( #77, ( #163 ) ) ;
#188 = APPROVAL_DATE_TIME ( #76, #32 ) ;
#189 = CALENDAR_DATE ( 2021, 6, 10 ) ;
#190 = EDGE_LOOP ( 'NONE', ( #152 ) ) ;
#191 = ADVANCED_FACE ( 'NONE', ( #118 ), #185, .F. ) ;
#192 = AXIS2_PLACEMENT_3D ( 'NONE', #106, #11, #73 ) ;
#193 =( NAMED_UNIT ( * ) SI_UNIT ( $, .STERADIAN. ) SOLID_ANGLE_UNIT ( ) );
#194 = CLOSED_SHELL ( 'NONE', ( #191, #24, #143, #91 ) ) ;
#195 = DIRECTION ( 'NONE',  ( -3.491481338843133355E-15, 1.224646799147353207E-16, -1.000000000000000000 ) ) ;
#196 = DIRECTION ( 'NONE',  ( 3.491481338843133355E-15, -1.224646799147353207E-16, 1.000000000000000000 ) ) ;
#197 = CC_DESIGN_DATE_AND_TIME_ASSIGNMENT ( #142, #54, ( #134 ) ) ;
#198 = DIRECTION ( 'NONE',  ( -3.491481338843133355E-15, 1.224646799147353207E-16, -1.000000000000000000 ) ) ;
#199 = CIRCLE ( 'NONE', #181, 0.8249999999999964029 ) ;
#200 = CARTESIAN_POINT ( 'NONE',  ( 3.142333204958820020E-14, 6.186509103480118842E-33, 9.000000000000000000 ) ) ;
#201 =( LENGTH_UNIT ( ) NAMED_UNIT ( * ) SI_UNIT ( .MILLI., .METRE. ) );
#202 = VERTEX_POINT ( 'NONE', #59 ) ;
#203 = PERSON_AND_ORGANIZATION ( #165, #176 ) ;
ENDSEC;
END-ISO-10303-21;
