ISO-10303-21;
HEADER;
FILE_DESCRIPTION (( 'STEP AP203' ),
    '1' );
FILE_NAME ('53605.step',
    '2021-10-06T09:22:59',
    ( '' ),
    ( '' ),
    'SwSTEP 2.0',
    'SolidWorks 2019',
    '' );
FILE_SCHEMA (( 'CONFIG_CONTROL_DESIGN' ));
ENDSEC;

DATA;
#1 = ADVANCED_FACE ( 'NONE', ( #136, #114 ), #188, .T. ) ;
#2 = AXIS2_PLACEMENT_3D ( 'NONE', #199, #32, #154 ) ;
#3 = PERSON_AND_ORGANIZATION ( #181, #38 ) ;
#4 = PERSON_AND_ORGANIZATION ( #181, #38 ) ;
#5 = SECURITY_CLASSIFICATION_LEVEL ( 'unclassified' ) ;
#6 = FACE_OUTER_BOUND ( 'NONE', #95, .T. ) ;
#7 = AXIS2_PLACEMENT_3D ( 'NONE', #10, #184, #172 ) ;
#8 = APPROVAL_DATE_TIME ( #180, #106 ) ;
#9 = CARTESIAN_POINT ( 'NONE',  ( 0.0000000000000000000, 0.0000000000000000000, 0.0000000000000000000 ) ) ;
#10 = CARTESIAN_POINT ( 'NONE',  ( 1.326762908760390423E-13, -4.653657836759941941E-15, 38.00000000000000000 ) ) ;
#11 = DATE_AND_TIME ( #43, #93 ) ;
#12 = FACE_OUTER_BOUND ( 'NONE', #51, .T. ) ;
#13 = CC_DESIGN_PERSON_AND_ORGANIZATION_ASSIGNMENT ( #72, #196, ( #121 ) ) ;
#14 = PLANE ( 'NONE',  #15 ) ;
#15 = AXIS2_PLACEMENT_3D ( 'NONE', #102, #79, #175 ) ;
#16 = MANIFOLD_SOLID_BREP ( 'Corps-Déplacer/Copier1[1]', #149 ) ;
#17 = CARTESIAN_POINT ( 'NONE',  ( 1.612646152681320061E-15, 0.7999999999999953815, 0.4618802153517033715 ) ) ;
#18 = EDGE_LOOP ( 'NONE', ( #24 ) ) ;
#19 = AXIS2_PLACEMENT_3D ( 'NONE', #105, #69, #54 ) ;
#20 = APPLICATION_PROTOCOL_DEFINITION ( 'international standard', 'config_control_design', 1994, #47 ) ;
#21 = CC_DESIGN_PERSON_AND_ORGANIZATION_ASSIGNMENT ( #153, #147, ( #174 ) ) ;
#22 = APPROVAL_ROLE ( '' ) ;
#23 = AXIS2_PLACEMENT_3D ( 'NONE', #90, #197, #66 ) ;
#24 = ORIENTED_EDGE ( 'NONE', *, *, #141, .F. ) ;
#25 = ADVANCED_BREP_SHAPE_REPRESENTATION ( '53605', ( #16, #146, #74 ), #163 ) ;
#26 = CALENDAR_DATE ( 2021, 6, 10 ) ;
#27 = DIRECTION ( 'NONE',  ( -3.491481338843133355E-15, 1.224646799147353207E-16, -1.000000000000000000 ) ) ;
#28 = DIRECTION ( 'NONE',  ( 1.000000000000000000, 0.0000000000000000000, 0.0000000000000000000 ) ) ;
#29 = PERSON_AND_ORGANIZATION_ROLE ( 'creator' ) ;
#30 = APPLICATION_CONTEXT ( 'configuration controlled 3d designs of mechanical parts and assemblies' ) ;
#31 = FACE_OUTER_BOUND ( 'NONE', #58, .T. ) ;
#32 = DIRECTION ( 'NONE',  ( -3.491481338843133355E-15, 1.224646799147353207E-16, -1.000000000000000000 ) ) ;
#33 = DIRECTION ( 'NONE',  ( -3.491481338843133355E-15, 1.224646799147353207E-16, -1.000000000000000000 ) ) ;
#34 = PRODUCT_DEFINITION_SHAPE ( 'NONE', 'NONE',  #176 ) ;
#35 = LOCAL_TIME ( 11, 22, 59.00000000000000000, #124 ) ;
#36 =( LENGTH_UNIT ( ) NAMED_UNIT ( * ) SI_UNIT ( .MILLI., .METRE. ) );
#37 = CC_DESIGN_APPROVAL ( #101, ( #121 ) ) ;
#38 = ORGANIZATION ( 'UNSPECIFIED', 'UNSPECIFIED', '' ) ;
#39 = ADVANCED_FACE ( 'NONE', ( #64, #46 ), #112, .T. ) ;
#40 = APPROVAL_STATUS ( 'not_yet_approved' ) ;
#41 = PERSON_AND_ORGANIZATION ( #181, #38 ) ;
#42 = DIRECTION ( 'NONE',  ( -3.491481338843133355E-15, 1.224646799147353207E-16, -1.000000000000000000 ) ) ;
#43 = CALENDAR_DATE ( 2021, 6, 10 ) ;
#44 = DIRECTION ( 'NONE',  ( 4.275831445896958607E-31, 1.000000000000000000, 1.224646799147353207E-16 ) ) ;
#45 = PLANE ( 'NONE',  #117 ) ;
#46 = FACE_BOUND ( 'NONE', #164, .T. ) ;
#47 = APPLICATION_CONTEXT ( 'configuration controlled 3d designs of mechanical parts and assemblies' ) ;
#48 = FACE_OUTER_BOUND ( 'NONE', #131, .T. ) ;
#49 = AXIS2_PLACEMENT_3D ( 'NONE', #116, #185, #44 ) ;
#50 = ORIENTED_EDGE ( 'NONE', *, *, #111, .F. ) ;
#51 = EDGE_LOOP ( 'NONE', ( #179 ) ) ;
#52 = CALENDAR_DATE ( 2021, 6, 10 ) ;
#53 = ADVANCED_FACE ( 'NONE', ( #48 ), #60, .T. ) ;
#54 = DIRECTION ( 'NONE',  ( 0.0000000000000000000, 1.000000000000000000, 0.0000000000000000000 ) ) ;
#55 = CC_DESIGN_APPROVAL ( #106, ( #176 ) ) ;
#56 = CARTESIAN_POINT ( 'NONE',  ( 1.326762908760390423E-13, 0.5999999999999954259, 38.00000000000000000 ) ) ;
#57 = ORIENTED_EDGE ( 'NONE', *, *, #122, .T. ) ;
#58 = EDGE_LOOP ( 'NONE', ( #70 ) ) ;
#59 = ORIENTED_EDGE ( 'NONE', *, *, #140, .T. ) ;
#60 = CONICAL_SURFACE ( 'NONE', #130, 0.7999999999999954925, 1.047197551196592746 ) ;
#61 = COORDINATED_UNIVERSAL_TIME_OFFSET ( 1, 0, .AHEAD. ) ;
#62 = CYLINDRICAL_SURFACE ( 'NONE', #49, 0.7999999999999981570 ) ;
#63 = FACE_OUTER_BOUND ( 'NONE', #83, .T. ) ;
#64 = FACE_OUTER_BOUND ( 'NONE', #18, .T. ) ;
#65 = DIRECTION ( 'NONE',  ( 4.275831445896958607E-31, 1.000000000000000000, 1.224646799147353207E-16 ) ) ;
#66 = DIRECTION ( 'NONE',  ( 4.814824860968116783E-31, 1.000000000000000000, 1.355252715606888185E-16 ) ) ;
#67 = AXIS2_PLACEMENT_3D ( 'NONE', #173, #42, #65 ) ;
#68 = ADVANCED_FACE ( 'NONE', ( #152 ), #14, .F. ) ;
#69 = DIRECTION ( 'NONE',  ( -3.491481338843133355E-15, 1.224646799147353207E-16, -1.000000000000000000 ) ) ;
#70 = ORIENTED_EDGE ( 'NONE', *, *, #122, .F. ) ;
#71 = PERSON_AND_ORGANIZATION ( #181, #38 ) ;
#72 = PERSON_AND_ORGANIZATION ( #181, #38 ) ;
#73 = AXIS2_PLACEMENT_3D ( 'NONE', #132, #76, #92 ) ;
#74 = AXIS2_PLACEMENT_3D ( 'NONE', #9, #171, #28 ) ;
#75 = DATE_AND_TIME ( #115, #162 ) ;
#76 = DIRECTION ( 'NONE',  ( 3.491481338843133355E-15, -1.224646799147353207E-16, 1.000000000000000000 ) ) ;
#77 = ADVANCED_FACE ( 'NONE', ( #31 ), #187, .T. ) ;
#78 = PRODUCT_RELATED_PRODUCT_CATEGORY ( 'detail', '', ( #148 ) ) ;
#79 = DIRECTION ( 'NONE',  ( -3.491481338843133355E-15, 1.224646799147353207E-16, -1.000000000000000000 ) ) ;
#80 = VERTEX_POINT ( 'NONE', #138 ) ;
#81 = CIRCLE ( 'NONE', #23, 0.7999999999999954925 ) ;
#82 = VERTEX_POINT ( 'NONE', #56 ) ;
#83 = EDGE_LOOP ( 'NONE', ( #170 ) ) ;
#84 = CALENDAR_DATE ( 2021, 6, 10 ) ;
#85 = PERSON_AND_ORGANIZATION ( #181, #38 ) ;
#86 = DATE_AND_TIME ( #84, #35 ) ;
#87 = PERSON_AND_ORGANIZATION ( #181, #38 ) ;
#88 = COORDINATED_UNIVERSAL_TIME_OFFSET ( 1, 0, .AHEAD. ) ;
#89 = CIRCLE ( 'NONE', #200, 0.8000000000000000444 ) ;
#90 = CARTESIAN_POINT ( 'NONE',  ( 1.612646152681319666E-15, -5.656401273199535758E-17, 0.4618802153517032605 ) ) ;
#91 = MECHANICAL_CONTEXT ( 'NONE', #47, 'mechanical' ) ;
#92 = DIRECTION ( 'NONE',  ( -4.275831445896958607E-31, -1.000000000000000000, -1.224646799147353207E-16 ) ) ;
#93 = LOCAL_TIME ( 11, 22, 59.00000000000000000, #88 ) ;
#94 = CC_DESIGN_APPROVAL ( #125, ( #174 ) ) ;
#95 = EDGE_LOOP ( 'NONE', ( #144 ) ) ;
#96 = EDGE_LOOP ( 'NONE', ( #50 ) ) ;
#97 = APPROVAL_PERSON_ORGANIZATION ( #85, #101, #22 ) ;
#98 = APPROVAL_STATUS ( 'not_yet_approved' ) ;
#99 = APPROVAL_STATUS ( 'not_yet_approved' ) ;
#100 = CC_DESIGN_SECURITY_CLASSIFICATION ( #121, ( #174 ) ) ;
#101 = APPROVAL ( #98, 'UNSPECIFIED' ) ;
#102 = CARTESIAN_POINT ( 'NONE',  ( 1.326762908760390423E-13, 4.499279347985503717E-33, 38.00000000000000000 ) ) ;
#103 = AXIS2_PLACEMENT_3D ( 'NONE', #107, #27, #118 ) ;
#104 = LOCAL_TIME ( 11, 22, 59.00000000000000000, #168 ) ;
#105 = CARTESIAN_POINT ( 'NONE',  ( 3.142333204958820020E-14, -1.102182119232617714E-15, 9.000000000000000000 ) ) ;
#106 = APPROVAL ( #99, 'UNSPECIFIED' ) ;
#107 = CARTESIAN_POINT ( 'NONE',  ( 1.326762908760390423E-13, -4.653657836759941941E-15, 38.00000000000000000 ) ) ;
#108 = DIRECTION ( 'NONE',  ( -4.814824860968116783E-31, -1.000000000000000000, -1.355252715606888185E-16 ) ) ;
#109 = VERTEX_POINT ( 'NONE', #178 ) ;
#110 = APPROVAL_DATE_TIME ( #86, #101 ) ;
#111 = EDGE_CURVE ( 'NONE', #82, #82, #192, .T. ) ;
#112 = CONICAL_SURFACE ( 'NONE', #103, 0.6000000000000000888, 0.7853981633974512766 ) ;
#113 = ADVANCED_FACE ( 'NONE', ( #12 ), #45, .F. ) ;
#114 = FACE_OUTER_BOUND ( 'NONE', #123, .T. ) ;
#115 = CALENDAR_DATE ( 2021, 6, 10 ) ;
#116 = CARTESIAN_POINT ( 'NONE',  ( 0.0000000000000000000, 0.0000000000000000000, 0.0000000000000000000 ) ) ;
#117 = AXIS2_PLACEMENT_3D ( 'NONE', #202, #134, #198 ) ;
#118 = DIRECTION ( 'NONE',  ( 0.0000000000000000000, 1.000000000000000000, 0.0000000000000000000 ) ) ;
#119 = CARTESIAN_POINT ( 'NONE',  ( 1.612646152681319666E-15, -5.656401273199535758E-17, 0.4618802153517032605 ) ) ;
#120 = CARTESIAN_POINT ( 'NONE',  ( 1.319779946082704535E-13, -4.629164900776995227E-15, 37.79999999999999716 ) ) ;
#121 = SECURITY_CLASSIFICATION ( '', '', #5 ) ;
#122 = EDGE_CURVE ( 'NONE', #177, #177, #142, .T. ) ;
#123 = EDGE_LOOP ( 'NONE', ( #57 ) ) ;
#124 = COORDINATED_UNIVERSAL_TIME_OFFSET ( 1, 0, .AHEAD. ) ;
#125 = APPROVAL ( #40, 'UNSPECIFIED' ) ;
#126 =( NAMED_UNIT ( * ) PLANE_ANGLE_UNIT ( ) SI_UNIT ( $, .RADIAN. ) );
#127 = CC_DESIGN_PERSON_AND_ORGANIZATION_ASSIGNMENT ( #4, #145, ( #176 ) ) ;
#128 = CC_DESIGN_DATE_AND_TIME_ASSIGNMENT ( #75, #182, ( #176 ) ) ;
#129 = APPROVAL_ROLE ( '' ) ;
#130 = AXIS2_PLACEMENT_3D ( 'NONE', #119, #156, #108 ) ;
#131 = EDGE_LOOP ( 'NONE', ( #59 ) ) ;
#132 = CARTESIAN_POINT ( 'NONE',  ( 3.142333204958820020E-14, 5.999039130647388009E-33, 9.000000000000000000 ) ) ;
#133 = CC_DESIGN_PERSON_AND_ORGANIZATION_ASSIGNMENT ( #87, #29, ( #174 ) ) ;
#134 = DIRECTION ( 'NONE',  ( 3.491481338843133355E-15, -1.224646799147353207E-16, 1.000000000000000000 ) ) ;
#135 = ORIENTED_EDGE ( 'NONE', *, *, #140, .F. ) ;
#136 = FACE_OUTER_BOUND ( 'NONE', #165, .T. ) ;
#137 = DESIGN_CONTEXT ( 'detailed design', #30, 'design' ) ;
#138 = CARTESIAN_POINT ( 'NONE',  ( 3.142333204958820020E-14, 0.7999999999999953815, 9.000000000000000000 ) ) ;
#139 = LOCAL_TIME ( 11, 22, 59.00000000000000000, #61 ) ;
#140 = EDGE_CURVE ( 'NONE', #158, #158, #81, .T. ) ;
#141 = EDGE_CURVE ( 'NONE', #109, #109, #89, .T. ) ;
#142 = CIRCLE ( 'NONE', #2, 0.7999999999999964917 ) ;
#143 = ADVANCED_FACE ( 'NONE', ( #63, #6 ), #62, .T. ) ;
#144 = ORIENTED_EDGE ( 'NONE', *, *, #141, .T. ) ;
#145 = PERSON_AND_ORGANIZATION_ROLE ( 'creator' ) ;
#146 = MANIFOLD_SOLID_BREP ( 'Corps-Déplacer/Copier1[2]', #155 ) ;
#147 = PERSON_AND_ORGANIZATION_ROLE ( 'design_supplier' ) ;
#148 = PRODUCT ( '53605', '53605', '', ( #91 ) ) ;
#149 = CLOSED_SHELL ( 'NONE', ( #113, #143, #39, #68 ) ) ;
#150 = DIRECTION ( 'NONE',  ( 0.0000000000000000000, 1.000000000000000000, 0.0000000000000000000 ) ) ;
#151 = COORDINATED_UNIVERSAL_TIME_OFFSET ( 1, 0, .AHEAD. ) ;
#152 = FACE_OUTER_BOUND ( 'NONE', #96, .T. ) ;
#153 = PERSON_AND_ORGANIZATION ( #181, #38 ) ;
#154 = DIRECTION ( 'NONE',  ( 0.0000000000000000000, 1.000000000000000000, 0.0000000000000000000 ) ) ;
#155 = CLOSED_SHELL ( 'NONE', ( #53, #1, #77 ) ) ;
#156 = DIRECTION ( 'NONE',  ( 3.491481338843133355E-15, -1.224646799147353207E-16, 1.000000000000000000 ) ) ;
#157 = ORIENTED_EDGE ( 'NONE', *, *, #111, .T. ) ;
#158 = VERTEX_POINT ( 'NONE', #17 ) ;
#159 = DATE_TIME_ROLE ( 'classification_date' ) ;
#160 =( NAMED_UNIT ( * ) SI_UNIT ( $, .STERADIAN. ) SOLID_ANGLE_UNIT ( ) );
#161 = APPROVAL_PERSON_ORGANIZATION ( #71, #106, #129 ) ;
#162 = LOCAL_TIME ( 11, 22, 59.00000000000000000, #151 ) ;
#163 =( GEOMETRIC_REPRESENTATION_CONTEXT ( 3 ) GLOBAL_UNCERTAINTY_ASSIGNED_CONTEXT ( ( #166 ) ) GLOBAL_UNIT_ASSIGNED_CONTEXT ( ( #36, #126, #160 ) ) REPRESENTATION_CONTEXT ( 'NONE', 'WORKASPACE' ) );
#164 = EDGE_LOOP ( 'NONE', ( #157 ) ) ;
#165 = EDGE_LOOP ( 'NONE', ( #135 ) ) ;
#166 = UNCERTAINTY_MEASURE_WITH_UNIT (LENGTH_MEASURE( 1.000000000000000082E-05 ), #36, 'distance_accuracy_value', 'NONE');
#167 = EDGE_CURVE ( 'NONE', #80, #80, #194, .T. ) ;
#168 = COORDINATED_UNIVERSAL_TIME_OFFSET ( 1, 0, .AHEAD. ) ;
#169 = APPROVAL_ROLE ( '' ) ;
#170 = ORIENTED_EDGE ( 'NONE', *, *, #167, .F. ) ;
#171 = DIRECTION ( 'NONE',  ( 0.0000000000000000000, 0.0000000000000000000, 1.000000000000000000 ) ) ;
#172 = DIRECTION ( 'NONE',  ( 0.0000000000000000000, 1.000000000000000000, 0.0000000000000000000 ) ) ;
#173 = CARTESIAN_POINT ( 'NONE',  ( 0.0000000000000000000, 0.0000000000000000000, 0.0000000000000000000 ) ) ;
#174 = PRODUCT_DEFINITION_FORMATION_WITH_SPECIFIED_SOURCE ( 'ANY', '', #148, .NOT_KNOWN. ) ;
#175 = DIRECTION ( 'NONE',  ( 4.275831445896958607E-31, 1.000000000000000000, 1.224646799147353207E-16 ) ) ;
#176 = PRODUCT_DEFINITION ( 'UNKNOWN', '', #174, #137 ) ;
#177 = VERTEX_POINT ( 'NONE', #193 ) ;
#178 = CARTESIAN_POINT ( 'NONE',  ( 1.319779946082704535E-13, 0.7999999999999953815, 37.79999999999999716 ) ) ;
#179 = ORIENTED_EDGE ( 'NONE', *, *, #167, .T. ) ;
#180 = DATE_AND_TIME ( #26, #104 ) ;
#181 = PERSON ( 'UNSPECIFIED', 'UNSPECIFIED', 'UNSPECIFIED', ('UNSPECIFIED'), ('UNSPECIFIED'), ('UNSPECIFIED') ) ;
#182 = DATE_TIME_ROLE ( 'creation_date' ) ;
#183 = PERSON_AND_ORGANIZATION_ROLE ( 'design_owner' ) ;
#184 = DIRECTION ( 'NONE',  ( -3.491481338843133355E-15, 1.224646799147353207E-16, -1.000000000000000000 ) ) ;
#185 = DIRECTION ( 'NONE',  ( -3.491481338843133355E-15, 1.224646799147353207E-16, -1.000000000000000000 ) ) ;
#186 = APPROVAL_DATE_TIME ( #11, #125 ) ;
#187 = PLANE ( 'NONE',  #73 ) ;
#188 = CYLINDRICAL_SURFACE ( 'NONE', #67, 0.7999999999999960476 ) ;
#189 = APPROVAL_PERSON_ORGANIZATION ( #41, #125, #169 ) ;
#190 = DATE_AND_TIME ( #52, #139 ) ;
#191 = SHAPE_DEFINITION_REPRESENTATION ( #34, #25 ) ;
#192 = CIRCLE ( 'NONE', #7, 0.6000000000000000888 ) ;
#193 = CARTESIAN_POINT ( 'NONE',  ( 3.142333204958820020E-14, 0.7999999999999953815, 9.000000000000000000 ) ) ;
#194 = CIRCLE ( 'NONE', #19, 0.7999999999999964917 ) ;
#195 = APPLICATION_PROTOCOL_DEFINITION ( 'international standard', 'config_control_design', 1994, #30 ) ;
#196 = PERSON_AND_ORGANIZATION_ROLE ( 'classification_officer' ) ;
#197 = DIRECTION ( 'NONE',  ( -3.491481338843133355E-15, 1.224646799147353207E-16, -1.000000000000000000 ) ) ;
#198 = DIRECTION ( 'NONE',  ( -4.275831445896958607E-31, -1.000000000000000000, -1.224646799147353207E-16 ) ) ;
#199 = CARTESIAN_POINT ( 'NONE',  ( 3.142333204958820020E-14, -1.102182119232617714E-15, 9.000000000000000000 ) ) ;
#200 = AXIS2_PLACEMENT_3D ( 'NONE', #120, #33, #150 ) ;
#201 = CC_DESIGN_PERSON_AND_ORGANIZATION_ASSIGNMENT ( #3, #183, ( #148 ) ) ;
#202 = CARTESIAN_POINT ( 'NONE',  ( 3.142333204958820020E-14, 5.999039130647388009E-33, 9.000000000000000000 ) ) ;
#203 = CC_DESIGN_DATE_AND_TIME_ASSIGNMENT ( #190, #159, ( #121 ) ) ;
ENDSEC;
END-ISO-10303-21;
