ISO-10303-21;
HEADER;
FILE_DESCRIPTION (( 'STEP AP203' ),
    '1' );
FILE_NAME ('53604.step',
    '2021-10-06T09:22:58',
    ( '' ),
    ( '' ),
    'SwSTEP 2.0',
    'SolidWorks 2019',
    '' );
FILE_SCHEMA (( 'CONFIG_CONTROL_DESIGN' ));
ENDSEC;

DATA;
#1 = CC_DESIGN_SECURITY_CLASSIFICATION ( #89, ( #118 ) ) ;
#2 = MECHANICAL_CONTEXT ( 'NONE', #5, 'mechanical' ) ;
#3 = APPROVAL ( #139, 'UNSPECIFIED' ) ;
#4 = DIRECTION ( 'NONE',  ( 1.000000000000000000, 0.0000000000000000000, 0.0000000000000000000 ) ) ;
#5 = APPLICATION_CONTEXT ( 'configuration controlled 3d designs of mechanical parts and assemblies' ) ;
#6 = MANIFOLD_SOLID_BREP ( 'Corps-Déplacer/Copier1[1]', #124 ) ;
#7 = EDGE_CURVE ( 'NONE', #83, #83, #40, .T. ) ;
#8 = DIRECTION ( 'NONE',  ( 4.970141791967088913E-31, 1.000000000000000000, 1.398970545142594430E-16 ) ) ;
#9 = VERTEX_POINT ( 'NONE', #25 ) ;
#10 = ORIENTED_EDGE ( 'NONE', *, *, #104, .T. ) ;
#11 = CARTESIAN_POINT ( 'NONE',  ( 3.142333204958820020E-14, -1.102182119232617714E-15, 9.000000000000000000 ) ) ;
#12 = APPLICATION_PROTOCOL_DEFINITION ( 'international standard', 'config_control_design', 1994, #5 ) ;
#13 = CARTESIAN_POINT ( 'NONE',  ( 3.142333204958820020E-14, 5.811569157814656492E-33, 9.000000000000000000 ) ) ;
#14 = PERSON_AND_ORGANIZATION_ROLE ( 'design_supplier' ) ;
#15 = DIRECTION ( 'NONE',  ( 4.275831445896958607E-31, 1.000000000000000000, 1.224646799147353207E-16 ) ) ;
#16 = CALENDAR_DATE ( 2021, 6, 10 ) ;
#17 = ORGANIZATION ( 'UNSPECIFIED', 'UNSPECIFIED', '' ) ;
#18 = CYLINDRICAL_SURFACE ( 'NONE', #105, 0.7749999999999959144 ) ;
#19 = PERSON_AND_ORGANIZATION ( #97, #17 ) ;
#20 = ADVANCED_FACE ( 'NONE', ( #63 ), #93, .F. ) ;
#21 = AXIS2_PLACEMENT_3D ( 'NONE', #22, #90, #4 ) ;
#22 = CARTESIAN_POINT ( 'NONE',  ( 0.0000000000000000000, 0.0000000000000000000, 0.0000000000000000000 ) ) ;
#23 = APPROVAL ( #98, 'UNSPECIFIED' ) ;
#24 = LOCAL_TIME ( 11, 22, 58.00000000000000000, #53 ) ;
#25 = CARTESIAN_POINT ( 'NONE',  ( 3.142333204958820020E-14, 0.7749999999999955813, 9.000000000000000000 ) ) ;
#26 =( NAMED_UNIT ( * ) SI_UNIT ( $, .STERADIAN. ) SOLID_ANGLE_UNIT ( ) );
#27 = ORIENTED_EDGE ( 'NONE', *, *, #7, .F. ) ;
#28 = DIRECTION ( 'NONE',  ( -3.491481338843133355E-15, 1.224646799147353207E-16, -1.000000000000000000 ) ) ;
#29 = APPLICATION_CONTEXT ( 'configuration controlled 3d designs of mechanical parts and assemblies' ) ;
#30 = CARTESIAN_POINT ( 'NONE',  ( 1.326762908760390423E-13, -4.653657836759941941E-15, 38.00000000000000000 ) ) ;
#31 = COORDINATED_UNIVERSAL_TIME_OFFSET ( 1, 0, .AHEAD. ) ;
#32 = EDGE_CURVE ( 'NONE', #72, #72, #43, .T. ) ;
#33 = DIRECTION ( 'NONE',  ( -4.275831445896958607E-31, -1.000000000000000000, -1.224646799147353207E-16 ) ) ;
#34 = APPROVAL_DATE_TIME ( #155, #3 ) ;
#35 = CARTESIAN_POINT ( 'NONE',  ( 0.0000000000000000000, 0.0000000000000000000, 0.0000000000000000000 ) ) ;
#36 = CIRCLE ( 'NONE', #163, 0.7749999999999965805 ) ;
#37 = CARTESIAN_POINT ( 'NONE',  ( 3.142333204958820020E-14, 5.811569157814656492E-33, 9.000000000000000000 ) ) ;
#38 = PERSON_AND_ORGANIZATION ( #97, #17 ) ;
#39 = CC_DESIGN_PERSON_AND_ORGANIZATION_ASSIGNMENT ( #38, #190, ( #89 ) ) ;
#40 = CIRCLE ( 'NONE', #75, 0.7749999999999954703 ) ;
#41 = ADVANCED_FACE ( 'NONE', ( #200 ), #49, .T. ) ;
#42 = PRODUCT ( '53604', '53604', '', ( #2 ) ) ;
#43 = CIRCLE ( 'NONE', #91, 0.7749999999999965805 ) ;
#44 = CC_DESIGN_APPROVAL ( #176, ( #140 ) ) ;
#45 = ORIENTED_EDGE ( 'NONE', *, *, #56, .T. ) ;
#46 = ORIENTED_EDGE ( 'NONE', *, *, #128, .F. ) ;
#47 = DIRECTION ( 'NONE',  ( 0.0000000000000000000, 1.000000000000000000, 0.0000000000000000000 ) ) ;
#48 = EDGE_LOOP ( 'NONE', ( #46 ) ) ;
#49 = CONICAL_SURFACE ( 'NONE', #147, 0.7749999999999954703, 1.047197551196592746 ) ;
#50 = EDGE_LOOP ( 'NONE', ( #27 ) ) ;
#51 = PERSON_AND_ORGANIZATION_ROLE ( 'design_owner' ) ;
#52 = ADVANCED_BREP_SHAPE_REPRESENTATION ( '53604', ( #6, #141, #21 ), #169 ) ;
#53 = COORDINATED_UNIVERSAL_TIME_OFFSET ( 1, 0, .AHEAD. ) ;
#54 = DIRECTION ( 'NONE',  ( 3.491481338843133355E-15, -1.224646799147353207E-16, 1.000000000000000000 ) ) ;
#55 = VERTEX_POINT ( 'NONE', #106 ) ;
#56 = EDGE_CURVE ( 'NONE', #55, #55, #68, .T. ) ;
#57 = DIRECTION ( 'NONE',  ( -3.491481338843133355E-15, 1.224646799147353207E-16, -1.000000000000000000 ) ) ;
#58 = CC_DESIGN_PERSON_AND_ORGANIZATION_ASSIGNMENT ( #59, #51, ( #42 ) ) ;
#59 = PERSON_AND_ORGANIZATION ( #97, #17 ) ;
#60 = APPROVAL_PERSON_ORGANIZATION ( #112, #176, #201 ) ;
#61 = CC_DESIGN_PERSON_AND_ORGANIZATION_ASSIGNMENT ( #88, #14, ( #118 ) ) ;
#62 = EDGE_LOOP ( 'NONE', ( #65 ) ) ;
#63 = FACE_OUTER_BOUND ( 'NONE', #122, .T. ) ;
#64 = DIRECTION ( 'NONE',  ( -3.491481338843133355E-15, 1.224646799147353207E-16, -1.000000000000000000 ) ) ;
#65 = ORIENTED_EDGE ( 'NONE', *, *, #32, .T. ) ;
#66 = CARTESIAN_POINT ( 'NONE',  ( 1.562250960410027928E-15, -5.479638733412048724E-17, 0.4474464586219624174 ) ) ;
#67 = APPROVAL_DATE_TIME ( #134, #23 ) ;
#68 = CIRCLE ( 'NONE', #157, 0.5750000000000009548 ) ;
#69 = APPLICATION_PROTOCOL_DEFINITION ( 'international standard', 'config_control_design', 1994, #29 ) ;
#70 = PLANE ( 'NONE',  #186 ) ;
#71 = DATE_AND_TIME ( #171, #24 ) ;
#72 = VERTEX_POINT ( 'NONE', #135 ) ;
#73 = DATE_AND_TIME ( #127, #84 ) ;
#74 = CC_DESIGN_DATE_AND_TIME_ASSIGNMENT ( #167, #202, ( #89 ) ) ;
#75 = AXIS2_PLACEMENT_3D ( 'NONE', #162, #28, #8 ) ;
#76 = APPROVAL_PERSON_ORGANIZATION ( #19, #23, #136 ) ;
#77 = ADVANCED_FACE ( 'NONE', ( #170, #183 ), #192, .T. ) ;
#78 = AXIS2_PLACEMENT_3D ( 'NONE', #103, #203, #191 ) ;
#79 = EDGE_LOOP ( 'NONE', ( #45 ) ) ;
#80 = DIRECTION ( 'NONE',  ( 3.491481338843133355E-15, -1.224646799147353207E-16, 1.000000000000000000 ) ) ;
#81 = DIRECTION ( 'NONE',  ( 0.0000000000000000000, 1.000000000000000000, 0.0000000000000000000 ) ) ;
#82 = SECURITY_CLASSIFICATION_LEVEL ( 'unclassified' ) ;
#83 = VERTEX_POINT ( 'NONE', #99 ) ;
#84 = LOCAL_TIME ( 11, 22, 58.00000000000000000, #31 ) ;
#85 = FACE_OUTER_BOUND ( 'NONE', #108, .T. ) ;
#86 = ADVANCED_FACE ( 'NONE', ( #184 ), #166, .F. ) ;
#87 = DIRECTION ( 'NONE',  ( -3.491481338843133355E-15, 1.224646799147353207E-16, -1.000000000000000000 ) ) ;
#88 = PERSON_AND_ORGANIZATION ( #97, #17 ) ;
#89 = SECURITY_CLASSIFICATION ( '', '', #82 ) ;
#90 = DIRECTION ( 'NONE',  ( 0.0000000000000000000, 0.0000000000000000000, 1.000000000000000000 ) ) ;
#91 = AXIS2_PLACEMENT_3D ( 'NONE', #11, #146, #81 ) ;
#92 = ADVANCED_FACE ( 'NONE', ( #177, #151 ), #18, .T. ) ;
#93 = PLANE ( 'NONE',  #107 ) ;
#94 = ORIENTED_EDGE ( 'NONE', *, *, #104, .F. ) ;
#95 = CALENDAR_DATE ( 2021, 6, 10 ) ;
#96 = ADVANCED_FACE ( 'NONE', ( #113 ), #70, .T. ) ;
#97 = PERSON ( 'UNSPECIFIED', 'UNSPECIFIED', 'UNSPECIFIED', ('UNSPECIFIED'), ('UNSPECIFIED'), ('UNSPECIFIED') ) ;
#98 = APPROVAL_STATUS ( 'not_yet_approved' ) ;
#99 = CARTESIAN_POINT ( 'NONE',  ( 1.562250960410028322E-15, 0.7749999999999953593, 0.4474464586219625284 ) ) ;
#100 = COORDINATED_UNIVERSAL_TIME_OFFSET ( 1, 0, .AHEAD. ) ;
#101 = APPROVAL_PERSON_ORGANIZATION ( #114, #3, #172 ) ;
#102 = FACE_OUTER_BOUND ( 'NONE', #48, .T. ) ;
#103 = CARTESIAN_POINT ( 'NONE',  ( 1.319779946082704535E-13, -4.629164900776995227E-15, 37.79999999999999716 ) ) ;
#104 = EDGE_CURVE ( 'NONE', #164, #164, #137, .T. ) ;
#105 = AXIS2_PLACEMENT_3D ( 'NONE', #174, #57, #153 ) ;
#106 = CARTESIAN_POINT ( 'NONE',  ( 1.326762908760390423E-13, 0.5749999999999962919, 38.00000000000000000 ) ) ;
#107 = AXIS2_PLACEMENT_3D ( 'NONE', #144, #148, #133 ) ;
#108 = EDGE_LOOP ( 'NONE', ( #10 ) ) ;
#109 = ORIENTED_EDGE ( 'NONE', *, *, #7, .T. ) ;
#110 = PERSON_AND_ORGANIZATION ( #97, #17 ) ;
#111 = EDGE_LOOP ( 'NONE', ( #109 ) ) ;
#112 = PERSON_AND_ORGANIZATION ( #97, #17 ) ;
#113 = FACE_OUTER_BOUND ( 'NONE', #145, .T. ) ;
#114 = PERSON_AND_ORGANIZATION ( #97, #17 ) ;
#115 = CARTESIAN_POINT ( 'NONE',  ( 3.142333204958820020E-14, -1.102182119232617714E-15, 9.000000000000000000 ) ) ;
#116 = DATE_TIME_ROLE ( 'creation_date' ) ;
#117 = CALENDAR_DATE ( 2021, 6, 10 ) ;
#118 = PRODUCT_DEFINITION_FORMATION_WITH_SPECIFIED_SOURCE ( 'ANY', '', #42, .NOT_KNOWN. ) ;
#119 = CLOSED_SHELL ( 'NONE', ( #41, #92, #96 ) ) ;
#120 = DIRECTION ( 'NONE',  ( 3.491481338843133355E-15, -1.224646799147353207E-16, 1.000000000000000000 ) ) ;
#121 = DIRECTION ( 'NONE',  ( 0.0000000000000000000, 1.000000000000000000, 0.0000000000000000000 ) ) ;
#122 = EDGE_LOOP ( 'NONE', ( #181 ) ) ;
#123 = DIRECTION ( 'NONE',  ( -3.491481338843133355E-15, 1.224646799147353207E-16, -1.000000000000000000 ) ) ;
#124 = CLOSED_SHELL ( 'NONE', ( #86, #180, #77, #20 ) ) ;
#125 = COORDINATED_UNIVERSAL_TIME_OFFSET ( 1, 0, .AHEAD. ) ;
#126 = DIRECTION ( 'NONE',  ( 0.0000000000000000000, 1.000000000000000000, 0.0000000000000000000 ) ) ;
#127 = CALENDAR_DATE ( 2021, 6, 10 ) ;
#128 = EDGE_CURVE ( 'NONE', #9, #9, #36, .T. ) ;
#129 = DIRECTION ( 'NONE',  ( -4.970141791967088913E-31, -1.000000000000000000, -1.398970545142594430E-16 ) ) ;
#130 = PRODUCT_RELATED_PRODUCT_CATEGORY ( 'detail', '', ( #42 ) ) ;
#131 = LOCAL_TIME ( 11, 22, 58.00000000000000000, #100 ) ;
#132 =( LENGTH_UNIT ( ) NAMED_UNIT ( * ) SI_UNIT ( .MILLI., .METRE. ) );
#133 = DIRECTION ( 'NONE',  ( 4.275831445896958607E-31, 1.000000000000000000, 1.224646799147353207E-16 ) ) ;
#134 = DATE_AND_TIME ( #95, #159 ) ;
#135 = CARTESIAN_POINT ( 'NONE',  ( 3.142333204958820020E-14, 0.7749999999999955813, 9.000000000000000000 ) ) ;
#136 = APPROVAL_ROLE ( '' ) ;
#137 = CIRCLE ( 'NONE', #78, 0.7750000000000009104 ) ;
#138 = CYLINDRICAL_SURFACE ( 'NONE', #198, 0.7749999999999988010 ) ;
#139 = APPROVAL_STATUS ( 'not_yet_approved' ) ;
#140 = PRODUCT_DEFINITION ( 'UNKNOWN', '', #118, #160 ) ;
#141 = MANIFOLD_SOLID_BREP ( 'Corps-Déplacer/Copier1[2]', #119 ) ;
#142 = DIRECTION ( 'NONE',  ( -4.275831445896958607E-31, -1.000000000000000000, -1.224646799147353207E-16 ) ) ;
#143 = CC_DESIGN_PERSON_AND_ORGANIZATION_ASSIGNMENT ( #110, #150, ( #118 ) ) ;
#144 = CARTESIAN_POINT ( 'NONE',  ( 1.326762908760390423E-13, 4.311809375152777674E-33, 38.00000000000000000 ) ) ;
#145 = EDGE_LOOP ( 'NONE', ( #194 ) ) ;
#146 = DIRECTION ( 'NONE',  ( -3.491481338843133355E-15, 1.224646799147353207E-16, -1.000000000000000000 ) ) ;
#147 = AXIS2_PLACEMENT_3D ( 'NONE', #66, #120, #129 ) ;
#148 = DIRECTION ( 'NONE',  ( -3.491481338843133355E-15, 1.224646799147353207E-16, -1.000000000000000000 ) ) ;
#149 = DIRECTION ( 'NONE',  ( -3.491481338843133355E-15, 1.224646799147353207E-16, -1.000000000000000000 ) ) ;
#150 = PERSON_AND_ORGANIZATION_ROLE ( 'creator' ) ;
#151 = FACE_OUTER_BOUND ( 'NONE', #62, .T. ) ;
#152 = PERSON_AND_ORGANIZATION ( #97, #17 ) ;
#153 = DIRECTION ( 'NONE',  ( 4.275831445896959482E-31, 1.000000000000000000, 1.224646799147353207E-16 ) ) ;
#154 = LOCAL_TIME ( 11, 22, 58.00000000000000000, #173 ) ;
#155 = DATE_AND_TIME ( #117, #154 ) ;
#156 = APPROVAL_STATUS ( 'not_yet_approved' ) ;
#157 = AXIS2_PLACEMENT_3D ( 'NONE', #197, #123, #47 ) ;
#158 = SHAPE_DEFINITION_REPRESENTATION ( #188, #52 ) ;
#159 = LOCAL_TIME ( 11, 22, 58.00000000000000000, #125 ) ;
#160 = DESIGN_CONTEXT ( 'detailed design', #29, 'design' ) ;
#161 = CARTESIAN_POINT ( 'NONE',  ( 1.319779946082704535E-13, 0.7749999999999962474, 37.79999999999999716 ) ) ;
#162 = CARTESIAN_POINT ( 'NONE',  ( 1.562250960410027928E-15, -5.479638733412048724E-17, 0.4474464586219624174 ) ) ;
#163 = AXIS2_PLACEMENT_3D ( 'NONE', #115, #87, #126 ) ;
#164 = VERTEX_POINT ( 'NONE', #161 ) ;
#165 = ORIENTED_EDGE ( 'NONE', *, *, #128, .T. ) ;
#166 = PLANE ( 'NONE',  #168 ) ;
#167 = DATE_AND_TIME ( #16, #131 ) ;
#168 = AXIS2_PLACEMENT_3D ( 'NONE', #13, #80, #33 ) ;
#169 =( GEOMETRIC_REPRESENTATION_CONTEXT ( 3 ) GLOBAL_UNCERTAINTY_ASSIGNED_CONTEXT ( ( #179 ) ) GLOBAL_UNIT_ASSIGNED_CONTEXT ( ( #132, #199, #26 ) ) REPRESENTATION_CONTEXT ( 'NONE', 'WORKASPACE' ) );
#170 = FACE_OUTER_BOUND ( 'NONE', #185, .T. ) ;
#171 = CALENDAR_DATE ( 2021, 6, 10 ) ;
#172 = APPROVAL_ROLE ( '' ) ;
#173 = COORDINATED_UNIVERSAL_TIME_OFFSET ( 1, 0, .AHEAD. ) ;
#174 = CARTESIAN_POINT ( 'NONE',  ( 0.0000000000000000000, 0.0000000000000000000, 0.0000000000000000000 ) ) ;
#175 = CC_DESIGN_APPROVAL ( #3, ( #118 ) ) ;
#176 = APPROVAL ( #156, 'UNSPECIFIED' ) ;
#177 = FACE_OUTER_BOUND ( 'NONE', #50, .T. ) ;
#178 = AXIS2_PLACEMENT_3D ( 'NONE', #30, #64, #121 ) ;
#179 = UNCERTAINTY_MEASURE_WITH_UNIT (LENGTH_MEASURE( 1.000000000000000082E-05 ), #132, 'distance_accuracy_value', 'NONE');
#180 = ADVANCED_FACE ( 'NONE', ( #102, #85 ), #138, .T. ) ;
#181 = ORIENTED_EDGE ( 'NONE', *, *, #56, .F. ) ;
#182 = CC_DESIGN_PERSON_AND_ORGANIZATION_ASSIGNMENT ( #152, #187, ( #140 ) ) ;
#183 = FACE_BOUND ( 'NONE', #79, .T. ) ;
#184 = FACE_OUTER_BOUND ( 'NONE', #196, .T. ) ;
#185 = EDGE_LOOP ( 'NONE', ( #94 ) ) ;
#186 = AXIS2_PLACEMENT_3D ( 'NONE', #37, #54, #142 ) ;
#187 = PERSON_AND_ORGANIZATION_ROLE ( 'creator' ) ;
#188 = PRODUCT_DEFINITION_SHAPE ( 'NONE', 'NONE',  #140 ) ;
#189 = APPROVAL_DATE_TIME ( #71, #176 ) ;
#190 = PERSON_AND_ORGANIZATION_ROLE ( 'classification_officer' ) ;
#191 = DIRECTION ( 'NONE',  ( 0.0000000000000000000, 1.000000000000000000, 0.0000000000000000000 ) ) ;
#192 = CONICAL_SURFACE ( 'NONE', #178, 0.5750000000000009548, 0.7853981633974512766 ) ;
#193 = CC_DESIGN_APPROVAL ( #23, ( #89 ) ) ;
#194 = ORIENTED_EDGE ( 'NONE', *, *, #32, .F. ) ;
#195 = CC_DESIGN_DATE_AND_TIME_ASSIGNMENT ( #73, #116, ( #140 ) ) ;
#196 = EDGE_LOOP ( 'NONE', ( #165 ) ) ;
#197 = CARTESIAN_POINT ( 'NONE',  ( 1.326762908760390423E-13, -4.653657836759941941E-15, 38.00000000000000000 ) ) ;
#198 = AXIS2_PLACEMENT_3D ( 'NONE', #35, #149, #15 ) ;
#199 =( NAMED_UNIT ( * ) PLANE_ANGLE_UNIT ( ) SI_UNIT ( $, .RADIAN. ) );
#200 = FACE_OUTER_BOUND ( 'NONE', #111, .T. ) ;
#201 = APPROVAL_ROLE ( '' ) ;
#202 = DATE_TIME_ROLE ( 'classification_date' ) ;
#203 = DIRECTION ( 'NONE',  ( -3.491481338843133355E-15, 1.224646799147353207E-16, -1.000000000000000000 ) ) ;
ENDSEC;
END-ISO-10303-21;
