ISO-10303-21;
HEADER;
FILE_DESCRIPTION (( 'STEP AP203' ),
    '1' );
FILE_NAME ('53602.step',
    '2021-10-06T09:22:58',
    ( '' ),
    ( '' ),
    'SwSTEP 2.0',
    'SolidWorks 2019',
    '' );
FILE_SCHEMA (( 'CONFIG_CONTROL_DESIGN' ));
ENDSEC;

DATA;
#1 = ADVANCED_FACE ( 'NONE', ( #123, #75 ), #133, .T. ) ;
#2 = APPROVAL_PERSON_ORGANIZATION ( #144, #113, #136 ) ;
#3 = DIRECTION ( 'NONE',  ( 3.491481338843133355E-15, -1.224646799147353207E-16, 1.000000000000000000 ) ) ;
#4 = SECURITY_CLASSIFICATION_LEVEL ( 'unclassified' ) ;
#5 = PERSON_AND_ORGANIZATION ( #107, #58 ) ;
#6 = PRODUCT_DEFINITION_SHAPE ( 'NONE', 'NONE',  #174 ) ;
#7 = PERSON_AND_ORGANIZATION ( #107, #58 ) ;
#8 = DIRECTION ( 'NONE',  ( 0.0000000000000000000, 0.0000000000000000000, 1.000000000000000000 ) ) ;
#9 = ADVANCED_FACE ( 'NONE', ( #59 ), #52, .T. ) ;
#10 = DATE_AND_TIME ( #152, #83 ) ;
#11 = LOCAL_TIME ( 11, 22, 58.00000000000000000, #116 ) ;
#12 = ORIENTED_EDGE ( 'NONE', *, *, #66, .F. ) ;
#13 = DIRECTION ( 'NONE',  ( -3.491481338843133355E-15, 1.224646799147353207E-16, -1.000000000000000000 ) ) ;
#14 = DIRECTION ( 'NONE',  ( -3.491481338843133355E-15, 1.224646799147353207E-16, -1.000000000000000000 ) ) ;
#15 = ADVANCED_FACE ( 'NONE', ( #65 ), #163, .T. ) ;
#16 = CC_DESIGN_APPROVAL ( #145, ( #178 ) ) ;
#17 = DIRECTION ( 'NONE',  ( 0.0000000000000000000, 1.000000000000000000, 0.0000000000000000000 ) ) ;
#18 = ORIENTED_EDGE ( 'NONE', *, *, #92, .T. ) ;
#19 = EDGE_CURVE ( 'NONE', #57, #57, #194, .T. ) ;
#20 = CC_DESIGN_APPROVAL ( #124, ( #174 ) ) ;
#21 = CIRCLE ( 'NONE', #27, 0.7499999999999973355 ) ;
#22 = CARTESIAN_POINT ( 'NONE',  ( 1.047444401652940007E-13, -3.673940397442059178E-15, 30.00000000000000000 ) ) ;
#23 = DIRECTION ( 'NONE',  ( -4.275831445896958607E-31, -1.000000000000000000, -1.224646799147353207E-16 ) ) ;
#24 = CALENDAR_DATE ( 2021, 6, 10 ) ;
#25 = CC_DESIGN_PERSON_AND_ORGANIZATION_ASSIGNMENT ( #7, #69, ( #162 ) ) ;
#26 = COORDINATED_UNIVERSAL_TIME_OFFSET ( 1, 0, .AHEAD. ) ;
#27 = AXIS2_PLACEMENT_3D ( 'NONE', #157, #191, #17 ) ;
#28 = PERSON_AND_ORGANIZATION ( #107, #58 ) ;
#29 = ORIENTED_EDGE ( 'NONE', *, *, #44, .T. ) ;
#30 = DIRECTION ( 'NONE',  ( 4.275831445896958607E-31, 1.000000000000000000, 1.224646799147353207E-16 ) ) ;
#31 = SHAPE_DEFINITION_REPRESENTATION ( #6, #176 ) ;
#32 = CARTESIAN_POINT ( 'NONE',  ( 1.047444401652940007E-13, 4.124339402320052999E-33, 30.00000000000000000 ) ) ;
#33 = EDGE_LOOP ( 'NONE', ( #139 ) ) ;
#34 = COORDINATED_UNIVERSAL_TIME_OFFSET ( 1, 0, .AHEAD. ) ;
#35 = AXIS2_PLACEMENT_3D ( 'NONE', #151, #8, #120 ) ;
#36 = CIRCLE ( 'NONE', #183, 0.7499999999999973355 ) ;
#37 = LOCAL_TIME ( 11, 22, 58.00000000000000000, #130 ) ;
#38 = APPROVAL_ROLE ( '' ) ;
#39 = AXIS2_PLACEMENT_3D ( 'NONE', #22, #129, #154 ) ;
#40 =( NAMED_UNIT ( * ) SI_UNIT ( $, .STERADIAN. ) SOLID_ANGLE_UNIT ( ) );
#41 =( GEOMETRIC_REPRESENTATION_CONTEXT ( 3 ) GLOBAL_UNCERTAINTY_ASSIGNED_CONTEXT ( ( #111 ) ) GLOBAL_UNIT_ASSIGNED_CONTEXT ( ( #168, #118, #40 ) ) REPRESENTATION_CONTEXT ( 'NONE', 'WORKASPACE' ) );
#42 = CARTESIAN_POINT ( 'NONE',  ( 1.047444401652940007E-13, 0.5499999999999963807, 30.00000000000000000 ) ) ;
#43 = EDGE_LOOP ( 'NONE', ( #61 ) ) ;
#44 = EDGE_CURVE ( 'NONE', #117, #117, #36, .T. ) ;
#45 = ORIENTED_EDGE ( 'NONE', *, *, #19, .F. ) ;
#46 = CARTESIAN_POINT ( 'NONE',  ( 1.511855768138738358E-15, -5.302876193624569087E-17, 0.4330127018922221849 ) ) ;
#47 = APPROVAL_DATE_TIME ( #121, #113 ) ;
#48 = ADVANCED_FACE ( 'NONE', ( #177 ), #49, .F. ) ;
#49 = PLANE ( 'NONE',  #148 ) ;
#50 = FACE_OUTER_BOUND ( 'NONE', #104, .T. ) ;
#51 = DIRECTION ( 'NONE',  ( 3.491481338843133355E-15, -1.224646799147353207E-16, 1.000000000000000000 ) ) ;
#52 = CONICAL_SURFACE ( 'NONE', #82, 0.7499999999999963363, 1.047197551196592746 ) ;
#53 = VERTEX_POINT ( 'NONE', #42 ) ;
#54 = APPROVAL_DATE_TIME ( #199, #124 ) ;
#55 = COORDINATED_UNIVERSAL_TIME_OFFSET ( 1, 0, .AHEAD. ) ;
#56 = APPROVAL_STATUS ( 'not_yet_approved' ) ;
#57 = VERTEX_POINT ( 'NONE', #186 ) ;
#58 = ORGANIZATION ( 'UNSPECIFIED', 'UNSPECIFIED', '' ) ;
#59 = FACE_OUTER_BOUND ( 'NONE', #175, .T. ) ;
#60 = DIRECTION ( 'NONE',  ( -3.491481338843133355E-15, 1.224646799147353207E-16, -1.000000000000000000 ) ) ;
#61 = ORIENTED_EDGE ( 'NONE', *, *, #149, .T. ) ;
#62 = DIRECTION ( 'NONE',  ( -3.491481338843133355E-15, 1.224646799147353207E-16, -1.000000000000000000 ) ) ;
#63 = ORIENTED_EDGE ( 'NONE', *, *, #19, .T. ) ;
#64 = CIRCLE ( 'NONE', #172, 0.7500000000000000000 ) ;
#65 = FACE_OUTER_BOUND ( 'NONE', #189, .T. ) ;
#66 = EDGE_CURVE ( 'NONE', #198, #198, #64, .T. ) ;
#67 = CALENDAR_DATE ( 2021, 6, 10 ) ;
#68 = AXIS2_PLACEMENT_3D ( 'NONE', #91, #14, #135 ) ;
#69 = PERSON_AND_ORGANIZATION_ROLE ( 'classification_officer' ) ;
#70 = MECHANICAL_CONTEXT ( 'NONE', #193, 'mechanical' ) ;
#71 = APPLICATION_PROTOCOL_DEFINITION ( 'international standard', 'config_control_design', 1994, #170 ) ;
#72 = DATE_TIME_ROLE ( 'creation_date' ) ;
#73 = CC_DESIGN_DATE_AND_TIME_ASSIGNMENT ( #127, #85, ( #162 ) ) ;
#74 = CARTESIAN_POINT ( 'NONE',  ( 2.793185071074506684E-14, 0.7499999999999963363, 8.000000000000000000 ) ) ;
#75 = FACE_OUTER_BOUND ( 'NONE', #90, .T. ) ;
#76 = DIRECTION ( 'NONE',  ( -3.491481338843133355E-15, 1.224646799147353207E-16, -1.000000000000000000 ) ) ;
#77 = APPROVAL_PERSON_ORGANIZATION ( #115, #124, #38 ) ;
#78 = FACE_OUTER_BOUND ( 'NONE', #109, .T. ) ;
#79 = CARTESIAN_POINT ( 'NONE',  ( 1.040461438975253740E-13, -3.649447461459112464E-15, 29.80000000000000071 ) ) ;
#80 = EDGE_LOOP ( 'NONE', ( #18 ) ) ;
#81 = MANIFOLD_SOLID_BREP ( 'Corps-Déplacer/Copier1[1]', #99 ) ;
#82 = AXIS2_PLACEMENT_3D ( 'NONE', #106, #160, #161 ) ;
#83 = LOCAL_TIME ( 11, 22, 58.00000000000000000, #26 ) ;
#84 = CC_DESIGN_PERSON_AND_ORGANIZATION_ASSIGNMENT ( #166, #187, ( #178 ) ) ;
#85 = DATE_TIME_ROLE ( 'classification_date' ) ;
#86 = DESIGN_CONTEXT ( 'detailed design', #170, 'design' ) ;
#87 = PERSON_AND_ORGANIZATION_ROLE ( 'creator' ) ;
#88 = FACE_OUTER_BOUND ( 'NONE', #171, .T. ) ;
#89 = AXIS2_PLACEMENT_3D ( 'NONE', #182, #51, #105 ) ;
#90 = EDGE_LOOP ( 'NONE', ( #173 ) ) ;
#91 = CARTESIAN_POINT ( 'NONE',  ( 0.0000000000000000000, 0.0000000000000000000, 0.0000000000000000000 ) ) ;
#92 = EDGE_CURVE ( 'NONE', #53, #53, #102, .T. ) ;
#93 = APPROVAL_STATUS ( 'not_yet_approved' ) ;
#94 = FACE_OUTER_BOUND ( 'NONE', #43, .T. ) ;
#95 = ORIENTED_EDGE ( 'NONE', *, *, #92, .F. ) ;
#96 = CARTESIAN_POINT ( 'NONE',  ( 1.047444401652940007E-13, -3.673940397442059178E-15, 30.00000000000000000 ) ) ;
#97 = CARTESIAN_POINT ( 'NONE',  ( 2.793185071074506684E-14, -9.797174393178825657E-16, 8.000000000000000000 ) ) ;
#98 = PLANE ( 'NONE',  #122 ) ;
#99 = CLOSED_SHELL ( 'NONE', ( #181, #1, #202, #48 ) ) ;
#100 = PRODUCT_RELATED_PRODUCT_CATEGORY ( 'detail', '', ( #147 ) ) ;
#101 = CARTESIAN_POINT ( 'NONE',  ( 1.040461438975253740E-13, 0.7499999999999963363, 29.80000000000000071 ) ) ;
#102 = CIRCLE ( 'NONE', #153, 0.5500000000000000444 ) ;
#103 = AXIS2_PLACEMENT_3D ( 'NONE', #46, #125, #134 ) ;
#104 = EDGE_LOOP ( 'NONE', ( #45 ) ) ;
#105 = DIRECTION ( 'NONE',  ( -4.275831445896958607E-31, -1.000000000000000000, -1.224646799147353207E-16 ) ) ;
#106 = CARTESIAN_POINT ( 'NONE',  ( 1.511855768138738358E-15, -5.302876193624569087E-17, 0.4330127018922221849 ) ) ;
#107 = PERSON ( 'UNSPECIFIED', 'UNSPECIFIED', 'UNSPECIFIED', ('UNSPECIFIED'), ('UNSPECIFIED'), ('UNSPECIFIED') ) ;
#108 = DIRECTION ( 'NONE',  ( 0.0000000000000000000, 1.000000000000000000, 0.0000000000000000000 ) ) ;
#109 = EDGE_LOOP ( 'NONE', ( #29 ) ) ;
#110 = APPROVAL_PERSON_ORGANIZATION ( #200, #145, #196 ) ;
#111 = UNCERTAINTY_MEASURE_WITH_UNIT (LENGTH_MEASURE( 1.000000000000000082E-05 ), #168, 'distance_accuracy_value', 'NONE');
#112 = AXIS2_PLACEMENT_3D ( 'NONE', #179, #13, #203 ) ;
#113 = APPROVAL ( #93, 'UNSPECIFIED' ) ;
#114 = APPROVAL_DATE_TIME ( #164, #145 ) ;
#115 = PERSON_AND_ORGANIZATION ( #107, #58 ) ;
#116 = COORDINATED_UNIVERSAL_TIME_OFFSET ( 1, 0, .AHEAD. ) ;
#117 = VERTEX_POINT ( 'NONE', #74 ) ;
#118 =( NAMED_UNIT ( * ) PLANE_ANGLE_UNIT ( ) SI_UNIT ( $, .RADIAN. ) );
#119 = CARTESIAN_POINT ( 'NONE',  ( 2.793185071074506684E-14, 0.7499999999999963363, 8.000000000000000000 ) ) ;
#120 = DIRECTION ( 'NONE',  ( 1.000000000000000000, 0.0000000000000000000, 0.0000000000000000000 ) ) ;
#121 = DATE_AND_TIME ( #190, #126 ) ;
#122 = AXIS2_PLACEMENT_3D ( 'NONE', #167, #3, #23 ) ;
#123 = FACE_OUTER_BOUND ( 'NONE', #33, .T. ) ;
#124 = APPROVAL ( #184, 'UNSPECIFIED' ) ;
#125 = DIRECTION ( 'NONE',  ( -3.491481338843133355E-15, 1.224646799147353207E-16, -1.000000000000000000 ) ) ;
#126 = LOCAL_TIME ( 11, 22, 58.00000000000000000, #34 ) ;
#127 = DATE_AND_TIME ( #67, #11 ) ;
#128 = PERSON_AND_ORGANIZATION ( #107, #58 ) ;
#129 = DIRECTION ( 'NONE',  ( -3.491481338843133355E-15, 1.224646799147353207E-16, -1.000000000000000000 ) ) ;
#130 = COORDINATED_UNIVERSAL_TIME_OFFSET ( 1, 0, .AHEAD. ) ;
#131 = ADVANCED_FACE ( 'NONE', ( #50, #94 ), #155, .T. ) ;
#132 = CALENDAR_DATE ( 2021, 6, 10 ) ;
#133 = CYLINDRICAL_SURFACE ( 'NONE', #68, 0.7499999999999986677 ) ;
#134 = DIRECTION ( 'NONE',  ( 5.135813185032654048E-31, 1.000000000000000000, 1.445602896647346312E-16 ) ) ;
#135 = DIRECTION ( 'NONE',  ( 4.275831445896959482E-31, 1.000000000000000000, 1.224646799147353207E-16 ) ) ;
#136 = APPROVAL_ROLE ( '' ) ;
#137 = CC_DESIGN_PERSON_AND_ORGANIZATION_ASSIGNMENT ( #128, #87, ( #178 ) ) ;
#138 = DIRECTION ( 'NONE',  ( 0.0000000000000000000, 1.000000000000000000, 0.0000000000000000000 ) ) ;
#139 = ORIENTED_EDGE ( 'NONE', *, *, #44, .F. ) ;
#140 = CONICAL_SURFACE ( 'NONE', #39, 0.5500000000000000444, 0.7853981633974512766 ) ;
#141 = DIRECTION ( 'NONE',  ( 0.0000000000000000000, 1.000000000000000000, 0.0000000000000000000 ) ) ;
#142 = CC_DESIGN_PERSON_AND_ORGANIZATION_ASSIGNMENT ( #5, #197, ( #147 ) ) ;
#143 = CC_DESIGN_SECURITY_CLASSIFICATION ( #162, ( #178 ) ) ;
#144 = PERSON_AND_ORGANIZATION ( #107, #58 ) ;
#145 = APPROVAL ( #56, 'UNSPECIFIED' ) ;
#146 = MANIFOLD_SOLID_BREP ( 'Corps-Déplacer/Copier1[2]', #180 ) ;
#147 = PRODUCT ( '53602', '53602', '', ( #70 ) ) ;
#148 = AXIS2_PLACEMENT_3D ( 'NONE', #32, #156, #30 ) ;
#149 = EDGE_CURVE ( 'NONE', #185, #185, #21, .T. ) ;
#150 = APPLICATION_PROTOCOL_DEFINITION ( 'international standard', 'config_control_design', 1994, #193 ) ;
#151 = CARTESIAN_POINT ( 'NONE',  ( 0.0000000000000000000, 0.0000000000000000000, 0.0000000000000000000 ) ) ;
#152 = CALENDAR_DATE ( 2021, 6, 10 ) ;
#153 = AXIS2_PLACEMENT_3D ( 'NONE', #96, #60, #138 ) ;
#154 = DIRECTION ( 'NONE',  ( 0.0000000000000000000, 1.000000000000000000, 0.0000000000000000000 ) ) ;
#155 = CYLINDRICAL_SURFACE ( 'NONE', #112, 0.7499999999999967804 ) ;
#156 = DIRECTION ( 'NONE',  ( -3.491481338843133355E-15, 1.224646799147353207E-16, -1.000000000000000000 ) ) ;
#157 = CARTESIAN_POINT ( 'NONE',  ( 2.793185071074506684E-14, -9.797174393178825657E-16, 8.000000000000000000 ) ) ;
#158 = ORIENTED_EDGE ( 'NONE', *, *, #149, .F. ) ;
#159 = EDGE_LOOP ( 'NONE', ( #95 ) ) ;
#160 = DIRECTION ( 'NONE',  ( 3.491481338843133355E-15, -1.224646799147353207E-16, 1.000000000000000000 ) ) ;
#161 = DIRECTION ( 'NONE',  ( -5.135813185032654048E-31, -1.000000000000000000, -1.445602896647346312E-16 ) ) ;
#162 = SECURITY_CLASSIFICATION ( '', '', #4 ) ;
#163 = PLANE ( 'NONE',  #89 ) ;
#164 = DATE_AND_TIME ( #24, #201 ) ;
#165 = FACE_BOUND ( 'NONE', #80, .T. ) ;
#166 = PERSON_AND_ORGANIZATION ( #107, #58 ) ;
#167 = CARTESIAN_POINT ( 'NONE',  ( 2.793185071074506684E-14, 5.624099184981931818E-33, 8.000000000000000000 ) ) ;
#168 =( LENGTH_UNIT ( ) NAMED_UNIT ( * ) SI_UNIT ( .MILLI., .METRE. ) );
#169 = PERSON_AND_ORGANIZATION_ROLE ( 'creator' ) ;
#170 = APPLICATION_CONTEXT ( 'configuration controlled 3d designs of mechanical parts and assemblies' ) ;
#171 = EDGE_LOOP ( 'NONE', ( #12 ) ) ;
#172 = AXIS2_PLACEMENT_3D ( 'NONE', #79, #76, #141 ) ;
#173 = ORIENTED_EDGE ( 'NONE', *, *, #66, .T. ) ;
#174 = PRODUCT_DEFINITION ( 'UNKNOWN', '', #178, #86 ) ;
#175 = EDGE_LOOP ( 'NONE', ( #63 ) ) ;
#176 = ADVANCED_BREP_SHAPE_REPRESENTATION ( '53602', ( #81, #146, #35 ), #41 ) ;
#177 = FACE_OUTER_BOUND ( 'NONE', #159, .T. ) ;
#178 = PRODUCT_DEFINITION_FORMATION_WITH_SPECIFIED_SOURCE ( 'ANY', '', #147, .NOT_KNOWN. ) ;
#179 = CARTESIAN_POINT ( 'NONE',  ( 0.0000000000000000000, 0.0000000000000000000, 0.0000000000000000000 ) ) ;
#180 = CLOSED_SHELL ( 'NONE', ( #9, #131, #15 ) ) ;
#181 = ADVANCED_FACE ( 'NONE', ( #78 ), #98, .F. ) ;
#182 = CARTESIAN_POINT ( 'NONE',  ( 2.793185071074506684E-14, 5.624099184981931818E-33, 8.000000000000000000 ) ) ;
#183 = AXIS2_PLACEMENT_3D ( 'NONE', #97, #62, #108 ) ;
#184 = APPROVAL_STATUS ( 'not_yet_approved' ) ;
#185 = VERTEX_POINT ( 'NONE', #119 ) ;
#186 = CARTESIAN_POINT ( 'NONE',  ( 1.511855768138738753E-15, 0.7499999999999963363, 0.4330127018922222959 ) ) ;
#187 = PERSON_AND_ORGANIZATION_ROLE ( 'design_supplier' ) ;
#188 = CC_DESIGN_DATE_AND_TIME_ASSIGNMENT ( #10, #72, ( #174 ) ) ;
#189 = EDGE_LOOP ( 'NONE', ( #158 ) ) ;
#190 = CALENDAR_DATE ( 2021, 6, 10 ) ;
#191 = DIRECTION ( 'NONE',  ( -3.491481338843133355E-15, 1.224646799147353207E-16, -1.000000000000000000 ) ) ;
#192 = CC_DESIGN_PERSON_AND_ORGANIZATION_ASSIGNMENT ( #28, #169, ( #174 ) ) ;
#193 = APPLICATION_CONTEXT ( 'configuration controlled 3d designs of mechanical parts and assemblies' ) ;
#194 = CIRCLE ( 'NONE', #103, 0.7499999999999963363 ) ;
#195 = CC_DESIGN_APPROVAL ( #113, ( #162 ) ) ;
#196 = APPROVAL_ROLE ( '' ) ;
#197 = PERSON_AND_ORGANIZATION_ROLE ( 'design_owner' ) ;
#198 = VERTEX_POINT ( 'NONE', #101 ) ;
#199 = DATE_AND_TIME ( #132, #37 ) ;
#200 = PERSON_AND_ORGANIZATION ( #107, #58 ) ;
#201 = LOCAL_TIME ( 11, 22, 58.00000000000000000, #55 ) ;
#202 = ADVANCED_FACE ( 'NONE', ( #88, #165 ), #140, .T. ) ;
#203 = DIRECTION ( 'NONE',  ( 4.275831445896958607E-31, 1.000000000000000000, 1.224646799147353207E-16 ) ) ;
ENDSEC;
END-ISO-10303-21;
