ISO-10303-21;
HEADER;
FILE_DESCRIPTION (( 'STEP AP203' ),
    '1' );
FILE_NAME ('53601.step',
    '2021-10-06T09:22:57',
    ( '' ),
    ( '' ),
    'SwSTEP 2.0',
    'SolidWorks 2019',
    '' );
FILE_SCHEMA (( 'CONFIG_CONTROL_DESIGN' ));
ENDSEC;

DATA;
#1 = APPROVAL ( #142, 'UNSPECIFIED' ) ;
#2 = PRODUCT_DEFINITION_SHAPE ( 'NONE', 'NONE',  #41 ) ;
#3 = CARTESIAN_POINT ( 'NONE',  ( 1.047444401652940007E-13, 0.5249999999999962474, 30.00000000000000000 ) ) ;
#4 = CC_DESIGN_APPROVAL ( #1, ( #41 ) ) ;
#5 = PLANE ( 'NONE',  #130 ) ;
#6 = AXIS2_PLACEMENT_3D ( 'NONE', #95, #17, #46 ) ;
#7 = APPROVAL ( #175, 'UNSPECIFIED' ) ;
#8 = DIRECTION ( 'NONE',  ( -3.491481338843133355E-15, 1.224646799147353207E-16, -1.000000000000000000 ) ) ;
#9 = PERSON_AND_ORGANIZATION_ROLE ( 'classification_officer' ) ;
#10 = AXIS2_PLACEMENT_3D ( 'NONE', #105, #75, #106 ) ;
#11 = PERSON_AND_ORGANIZATION ( #102, #78 ) ;
#12 = DIRECTION ( 'NONE',  ( 0.0000000000000000000, 1.000000000000000000, 0.0000000000000000000 ) ) ;
#13 = FACE_OUTER_BOUND ( 'NONE', #60, .T. ) ;
#14 = ORIENTED_EDGE ( 'NONE', *, *, #149, .F. ) ;
#15 = EDGE_LOOP ( 'NONE', ( #89 ) ) ;
#16 = MECHANICAL_CONTEXT ( 'NONE', #133, 'mechanical' ) ;
#17 = DIRECTION ( 'NONE',  ( 0.0000000000000000000, 0.0000000000000000000, 1.000000000000000000 ) ) ;
#18 = AXIS2_PLACEMENT_3D ( 'NONE', #122, #20, #27 ) ;
#19 = CC_DESIGN_DATE_AND_TIME_ASSIGNMENT ( #150, #23, ( #41 ) ) ;
#20 = DIRECTION ( 'NONE',  ( -3.491481338843133355E-15, 1.224646799147353207E-16, -1.000000000000000000 ) ) ;
#21 = AXIS2_PLACEMENT_3D ( 'NONE', #160, #138, #158 ) ;
#22 = CARTESIAN_POINT ( 'NONE',  ( 2.793185071074506684E-14, 5.436629212149198933E-33, 8.000000000000000000 ) ) ;
#23 = DATE_TIME_ROLE ( 'creation_date' ) ;
#24 = EDGE_LOOP ( 'NONE', ( #193 ) ) ;
#25 = LOCAL_TIME ( 11, 22, 57.00000000000000000, #97 ) ;
#26 = EDGE_LOOP ( 'NONE', ( #178 ) ) ;
#27 = DIRECTION ( 'NONE',  ( 4.275831445896958607E-31, 1.000000000000000000, 1.224646799147353207E-16 ) ) ;
#28 = EDGE_LOOP ( 'NONE', ( #14 ) ) ;
#29 = DIRECTION ( 'NONE',  ( -3.491481338843133355E-15, 1.224646799147353207E-16, -1.000000000000000000 ) ) ;
#30 = CC_DESIGN_SECURITY_CLASSIFICATION ( #176, ( #37 ) ) ;
#31 = PERSON_AND_ORGANIZATION_ROLE ( 'creator' ) ;
#32 = CC_DESIGN_APPROVAL ( #85, ( #37 ) ) ;
#33 = CC_DESIGN_PERSON_AND_ORGANIZATION_ASSIGNMENT ( #187, #127, ( #65 ) ) ;
#34 = CIRCLE ( 'NONE', #62, 0.7249999999999972022 ) ;
#35 = DIRECTION ( 'NONE',  ( 5.312910191413091844E-31, 1.000000000000000000, 1.495451272393806938E-16 ) ) ;
#36 = DIRECTION ( 'NONE',  ( 4.275831445896958607E-31, 1.000000000000000000, 1.224646799147353207E-16 ) ) ;
#37 = PRODUCT_DEFINITION_FORMATION_WITH_SPECIFIED_SOURCE ( 'ANY', '', #65, .NOT_KNOWN. ) ;
#38 = APPROVAL_DATE_TIME ( #115, #7 ) ;
#39 = CIRCLE ( 'NONE', #156, 0.7249999999999999778 ) ;
#40 = VERTEX_POINT ( 'NONE', #154 ) ;
#41 = PRODUCT_DEFINITION ( 'UNKNOWN', '', #37, #100 ) ;
#42 = FACE_BOUND ( 'NONE', #15, .T. ) ;
#43 = FACE_OUTER_BOUND ( 'NONE', #155, .T. ) ;
#44 =( LENGTH_UNIT ( ) NAMED_UNIT ( * ) SI_UNIT ( .MILLI., .METRE. ) );
#45 = CLOSED_SHELL ( 'NONE', ( #188, #57, #71 ) ) ;
#46 = DIRECTION ( 'NONE',  ( 1.000000000000000000, 0.0000000000000000000, 0.0000000000000000000 ) ) ;
#47 = CIRCLE ( 'NONE', #159, 0.7249999999999972022 ) ;
#48 = AXIS2_PLACEMENT_3D ( 'NONE', #132, #192, #52 ) ;
#49 = CONICAL_SURFACE ( 'NONE', #48, 0.7249999999999963141, 1.047197551196592746 ) ;
#50 = APPLICATION_CONTEXT ( 'configuration controlled 3d designs of mechanical parts and assemblies' ) ;
#51 = CARTESIAN_POINT ( 'NONE',  ( 0.0000000000000000000, 0.0000000000000000000, 0.0000000000000000000 ) ) ;
#52 = DIRECTION ( 'NONE',  ( -5.312910191413091844E-31, -1.000000000000000000, -1.495451272393806938E-16 ) ) ;
#53 = DATE_AND_TIME ( #136, #161 ) ;
#54 = APPROVAL_ROLE ( '' ) ;
#55 = CALENDAR_DATE ( 2021, 6, 10 ) ;
#56 = CARTESIAN_POINT ( 'NONE',  ( 2.793185071074506684E-14, -9.797174393178825657E-16, 8.000000000000000000 ) ) ;
#57 = ADVANCED_FACE ( 'NONE', ( #82, #146 ), #174, .T. ) ;
#58 = APPROVAL_PERSON_ORGANIZATION ( #74, #7, #118 ) ;
#59 = PLANE ( 'NONE',  #21 ) ;
#60 = EDGE_LOOP ( 'NONE', ( #91 ) ) ;
#61 = APPLICATION_PROTOCOL_DEFINITION ( 'international standard', 'config_control_design', 1994, #50 ) ;
#62 = AXIS2_PLACEMENT_3D ( 'NONE', #56, #167, #12 ) ;
#63 = APPROVAL_DATE_TIME ( #170, #1 ) ;
#64 = CARTESIAN_POINT ( 'NONE',  ( 1.461460575867447211E-15, 0.7249999999999963141, 0.4185789451624814528 ) ) ;
#65 = PRODUCT ( '53601', '53601', '', ( #16 ) ) ;
#66 = PERSON_AND_ORGANIZATION ( #102, #78 ) ;
#67 = DIRECTION ( 'NONE',  ( 4.275831445896958607E-31, 1.000000000000000000, 1.224646799147353207E-16 ) ) ;
#68 = CONICAL_SURFACE ( 'NONE', #10, 0.5250000000000000222, 0.7853981633974512766 ) ;
#69 = FACE_OUTER_BOUND ( 'NONE', #24, .T. ) ;
#70 = MANIFOLD_SOLID_BREP ( 'Corps-Déplacer/Copier1[2]', #45 ) ;
#71 = ADVANCED_FACE ( 'NONE', ( #185 ), #59, .T. ) ;
#72 = COORDINATED_UNIVERSAL_TIME_OFFSET ( 1, 0, .AHEAD. ) ;
#73 = ADVANCED_FACE ( 'NONE', ( #197 ), #5, .F. ) ;
#74 = PERSON_AND_ORGANIZATION ( #102, #78 ) ;
#75 = DIRECTION ( 'NONE',  ( -3.491481338843133355E-15, 1.224646799147353207E-16, -1.000000000000000000 ) ) ;
#76 = DIRECTION ( 'NONE',  ( -3.491481338843133355E-15, 1.224646799147353207E-16, -1.000000000000000000 ) ) ;
#77 = ADVANCED_BREP_SHAPE_REPRESENTATION ( '53601', ( #80, #70, #6 ), #120 ) ;
#78 = ORGANIZATION ( 'UNSPECIFIED', 'UNSPECIFIED', '' ) ;
#79 = CARTESIAN_POINT ( 'NONE',  ( 1.047444401652940007E-13, 3.936869429487320114E-33, 30.00000000000000000 ) ) ;
#80 = MANIFOLD_SOLID_BREP ( 'Corps-Déplacer/Copier1[1]', #144 ) ;
#81 = VERTEX_POINT ( 'NONE', #64 ) ;
#82 = FACE_OUTER_BOUND ( 'NONE', #28, .T. ) ;
#83 = DIRECTION ( 'NONE',  ( -4.275831445896958607E-31, -1.000000000000000000, -1.224646799147353207E-16 ) ) ;
#84 = LOCAL_TIME ( 11, 22, 57.00000000000000000, #134 ) ;
#85 = APPROVAL ( #112, 'UNSPECIFIED' ) ;
#86 = AXIS2_PLACEMENT_3D ( 'NONE', #119, #76, #90 ) ;
#87 = PERSON_AND_ORGANIZATION ( #102, #78 ) ;
#88 = CARTESIAN_POINT ( 'NONE',  ( 1.040461438975253740E-13, -3.649447461459112464E-15, 29.80000000000000071 ) ) ;
#89 = ORIENTED_EDGE ( 'NONE', *, *, #202, .T. ) ;
#90 = DIRECTION ( 'NONE',  ( 0.0000000000000000000, 1.000000000000000000, 0.0000000000000000000 ) ) ;
#91 = ORIENTED_EDGE ( 'NONE', *, *, #107, .F. ) ;
#92 = CIRCLE ( 'NONE', #86, 0.5250000000000000222 ) ;
#93 = CC_DESIGN_PERSON_AND_ORGANIZATION_ASSIGNMENT ( #196, #194, ( #37 ) ) ;
#94 = APPLICATION_PROTOCOL_DEFINITION ( 'international standard', 'config_control_design', 1994, #133 ) ;
#95 = CARTESIAN_POINT ( 'NONE',  ( 0.0000000000000000000, 0.0000000000000000000, 0.0000000000000000000 ) ) ;
#96 = CC_DESIGN_PERSON_AND_ORGANIZATION_ASSIGNMENT ( #87, #166, ( #37 ) ) ;
#97 = COORDINATED_UNIVERSAL_TIME_OFFSET ( 1, 0, .AHEAD. ) ;
#98 = ADVANCED_FACE ( 'NONE', ( #43 ), #184, .F. ) ;
#99 = EDGE_LOOP ( 'NONE', ( #162 ) ) ;
#100 = DESIGN_CONTEXT ( 'detailed design', #50, 'design' ) ;
#101 = APPROVAL_DATE_TIME ( #53, #85 ) ;
#102 = PERSON ( 'UNSPECIFIED', 'UNSPECIFIED', 'UNSPECIFIED', ('UNSPECIFIED'), ('UNSPECIFIED'), ('UNSPECIFIED') ) ;
#103 = LOCAL_TIME ( 11, 22, 57.00000000000000000, #189 ) ;
#104 = SECURITY_CLASSIFICATION_LEVEL ( 'unclassified' ) ;
#105 = CARTESIAN_POINT ( 'NONE',  ( 1.047444401652940007E-13, -3.673940397442059178E-15, 30.00000000000000000 ) ) ;
#106 = DIRECTION ( 'NONE',  ( 0.0000000000000000000, 1.000000000000000000, 0.0000000000000000000 ) ) ;
#107 = EDGE_CURVE ( 'NONE', #111, #111, #39, .T. ) ;
#108 = ADVANCED_FACE ( 'NONE', ( #13, #42 ), #68, .T. ) ;
#109 = EDGE_CURVE ( 'NONE', #40, #40, #34, .T. ) ;
#110 = DIRECTION ( 'NONE',  ( -3.491481338843133355E-15, 1.224646799147353207E-16, -1.000000000000000000 ) ) ;
#111 = VERTEX_POINT ( 'NONE', #182 ) ;
#112 = APPROVAL_STATUS ( 'not_yet_approved' ) ;
#113 = CC_DESIGN_APPROVAL ( #7, ( #176 ) ) ;
#114 = ORIENTED_EDGE ( 'NONE', *, *, #202, .F. ) ;
#115 = DATE_AND_TIME ( #181, #84 ) ;
#116 = ORIENTED_EDGE ( 'NONE', *, *, #109, .T. ) ;
#117 = CALENDAR_DATE ( 2021, 6, 10 ) ;
#118 = APPROVAL_ROLE ( '' ) ;
#119 = CARTESIAN_POINT ( 'NONE',  ( 1.047444401652940007E-13, -3.673940397442059178E-15, 30.00000000000000000 ) ) ;
#120 =( GEOMETRIC_REPRESENTATION_CONTEXT ( 3 ) GLOBAL_UNCERTAINTY_ASSIGNED_CONTEXT ( ( #177 ) ) GLOBAL_UNIT_ASSIGNED_CONTEXT ( ( #44, #203, #123 ) ) REPRESENTATION_CONTEXT ( 'NONE', 'WORKASPACE' ) );
#121 = DATE_TIME_ROLE ( 'classification_date' ) ;
#122 = CARTESIAN_POINT ( 'NONE',  ( 0.0000000000000000000, 0.0000000000000000000, 0.0000000000000000000 ) ) ;
#123 =( NAMED_UNIT ( * ) SI_UNIT ( $, .STERADIAN. ) SOLID_ANGLE_UNIT ( ) );
#124 = ADVANCED_FACE ( 'NONE', ( #201, #137 ), #157, .T. ) ;
#125 = CALENDAR_DATE ( 2021, 6, 10 ) ;
#126 = PERSON_AND_ORGANIZATION ( #102, #78 ) ;
#127 = PERSON_AND_ORGANIZATION_ROLE ( 'design_owner' ) ;
#128 = APPROVAL_PERSON_ORGANIZATION ( #66, #1, #143 ) ;
#129 = CC_DESIGN_PERSON_AND_ORGANIZATION_ASSIGNMENT ( #126, #31, ( #41 ) ) ;
#130 = AXIS2_PLACEMENT_3D ( 'NONE', #79, #29, #36 ) ;
#131 = CARTESIAN_POINT ( 'NONE',  ( 2.793185071074506684E-14, -9.797174393178825657E-16, 8.000000000000000000 ) ) ;
#132 = CARTESIAN_POINT ( 'NONE',  ( 1.461460575867446817E-15, -5.126113653837082670E-17, 0.4185789451624813418 ) ) ;
#133 = APPLICATION_CONTEXT ( 'configuration controlled 3d designs of mechanical parts and assemblies' ) ;
#134 = COORDINATED_UNIVERSAL_TIME_OFFSET ( 1, 0, .AHEAD. ) ;
#135 = EDGE_LOOP ( 'NONE', ( #114 ) ) ;
#136 = CALENDAR_DATE ( 2021, 6, 10 ) ;
#137 = FACE_OUTER_BOUND ( 'NONE', #195, .T. ) ;
#138 = DIRECTION ( 'NONE',  ( 3.491481338843133355E-15, -1.224646799147353207E-16, 1.000000000000000000 ) ) ;
#139 = PRODUCT_RELATED_PRODUCT_CATEGORY ( 'detail', '', ( #65 ) ) ;
#140 = AXIS2_PLACEMENT_3D ( 'NONE', #22, #199, #83 ) ;
#141 = DIRECTION ( 'NONE',  ( 0.0000000000000000000, 1.000000000000000000, 0.0000000000000000000 ) ) ;
#142 = APPROVAL_STATUS ( 'not_yet_approved' ) ;
#143 = APPROVAL_ROLE ( '' ) ;
#144 = CLOSED_SHELL ( 'NONE', ( #98, #124, #108, #73 ) ) ;
#145 = EDGE_CURVE ( 'NONE', #168, #168, #47, .T. ) ;
#146 = FACE_OUTER_BOUND ( 'NONE', #165, .T. ) ;
#147 = LOCAL_TIME ( 11, 22, 57.00000000000000000, #72 ) ;
#148 = COORDINATED_UNIVERSAL_TIME_OFFSET ( 1, 0, .AHEAD. ) ;
#149 = EDGE_CURVE ( 'NONE', #81, #81, #183, .T. ) ;
#150 = DATE_AND_TIME ( #117, #25 ) ;
#151 = DIRECTION ( 'NONE',  ( -3.491481338843133355E-15, 1.224646799147353207E-16, -1.000000000000000000 ) ) ;
#152 = ORIENTED_EDGE ( 'NONE', *, *, #145, .T. ) ;
#153 = CC_DESIGN_PERSON_AND_ORGANIZATION_ASSIGNMENT ( #11, #9, ( #176 ) ) ;
#154 = CARTESIAN_POINT ( 'NONE',  ( 2.793185071074506684E-14, 0.7249999999999963141, 8.000000000000000000 ) ) ;
#155 = EDGE_LOOP ( 'NONE', ( #152 ) ) ;
#156 = AXIS2_PLACEMENT_3D ( 'NONE', #88, #151, #141 ) ;
#157 = CYLINDRICAL_SURFACE ( 'NONE', #172, 0.7249999999999986455 ) ;
#158 = DIRECTION ( 'NONE',  ( -4.275831445896958607E-31, -1.000000000000000000, -1.224646799147353207E-16 ) ) ;
#159 = AXIS2_PLACEMENT_3D ( 'NONE', #131, #8, #173 ) ;
#160 = CARTESIAN_POINT ( 'NONE',  ( 2.793185071074506684E-14, 5.436629212149198933E-33, 8.000000000000000000 ) ) ;
#161 = LOCAL_TIME ( 11, 22, 57.00000000000000000, #148 ) ;
#162 = ORIENTED_EDGE ( 'NONE', *, *, #109, .F. ) ;
#163 = SHAPE_DEFINITION_REPRESENTATION ( #2, #77 ) ;
#164 = DIRECTION ( 'NONE',  ( -3.491481338843133355E-15, 1.224646799147353207E-16, -1.000000000000000000 ) ) ;
#165 = EDGE_LOOP ( 'NONE', ( #116 ) ) ;
#166 = PERSON_AND_ORGANIZATION_ROLE ( 'creator' ) ;
#167 = DIRECTION ( 'NONE',  ( -3.491481338843133355E-15, 1.224646799147353207E-16, -1.000000000000000000 ) ) ;
#168 = VERTEX_POINT ( 'NONE', #169 ) ;
#169 = CARTESIAN_POINT ( 'NONE',  ( 2.793185071074506684E-14, 0.7249999999999963141, 8.000000000000000000 ) ) ;
#170 = DATE_AND_TIME ( #125, #103 ) ;
#171 = APPROVAL_PERSON_ORGANIZATION ( #179, #85, #54 ) ;
#172 = AXIS2_PLACEMENT_3D ( 'NONE', #51, #164, #67 ) ;
#173 = DIRECTION ( 'NONE',  ( 0.0000000000000000000, 1.000000000000000000, 0.0000000000000000000 ) ) ;
#174 = CYLINDRICAL_SURFACE ( 'NONE', #18, 0.7249999999999966471 ) ;
#175 = APPROVAL_STATUS ( 'not_yet_approved' ) ;
#176 = SECURITY_CLASSIFICATION ( '', '', #104 ) ;
#177 = UNCERTAINTY_MEASURE_WITH_UNIT (LENGTH_MEASURE( 1.000000000000000082E-05 ), #44, 'distance_accuracy_value', 'NONE');
#178 = ORIENTED_EDGE ( 'NONE', *, *, #145, .F. ) ;
#179 = PERSON_AND_ORGANIZATION ( #102, #78 ) ;
#180 = ORIENTED_EDGE ( 'NONE', *, *, #107, .T. ) ;
#181 = CALENDAR_DATE ( 2021, 6, 10 ) ;
#182 = CARTESIAN_POINT ( 'NONE',  ( 1.040461438975253740E-13, 0.7249999999999963141, 29.80000000000000071 ) ) ;
#183 = CIRCLE ( 'NONE', #200, 0.7249999999999963141 ) ;
#184 = PLANE ( 'NONE',  #140 ) ;
#185 = FACE_OUTER_BOUND ( 'NONE', #99, .T. ) ;
#186 = VERTEX_POINT ( 'NONE', #3 ) ;
#187 = PERSON_AND_ORGANIZATION ( #102, #78 ) ;
#188 = ADVANCED_FACE ( 'NONE', ( #69 ), #49, .T. ) ;
#189 = COORDINATED_UNIVERSAL_TIME_OFFSET ( 1, 0, .AHEAD. ) ;
#190 = CARTESIAN_POINT ( 'NONE',  ( 1.461460575867446817E-15, -5.126113653837082670E-17, 0.4185789451624813418 ) ) ;
#191 = CC_DESIGN_DATE_AND_TIME_ASSIGNMENT ( #198, #121, ( #176 ) ) ;
#192 = DIRECTION ( 'NONE',  ( 3.491481338843133355E-15, -1.224646799147353207E-16, 1.000000000000000000 ) ) ;
#193 = ORIENTED_EDGE ( 'NONE', *, *, #149, .T. ) ;
#194 = PERSON_AND_ORGANIZATION_ROLE ( 'design_supplier' ) ;
#195 = EDGE_LOOP ( 'NONE', ( #180 ) ) ;
#196 = PERSON_AND_ORGANIZATION ( #102, #78 ) ;
#197 = FACE_OUTER_BOUND ( 'NONE', #135, .T. ) ;
#198 = DATE_AND_TIME ( #55, #147 ) ;
#199 = DIRECTION ( 'NONE',  ( 3.491481338843133355E-15, -1.224646799147353207E-16, 1.000000000000000000 ) ) ;
#200 = AXIS2_PLACEMENT_3D ( 'NONE', #190, #110, #35 ) ;
#201 = FACE_OUTER_BOUND ( 'NONE', #26, .T. ) ;
#202 = EDGE_CURVE ( 'NONE', #186, #186, #92, .T. ) ;
#203 =( NAMED_UNIT ( * ) PLANE_ANGLE_UNIT ( ) SI_UNIT ( $, .RADIAN. ) );
ENDSEC;
END-ISO-10303-21;
