ISO-10303-21;
HEADER;
FILE_DESCRIPTION (( 'STEP AP203' ),
    '1' );
FILE_NAME ('53600.step',
    '2021-10-06T09:22:57',
    ( '' ),
    ( '' ),
    'SwSTEP 2.0',
    'SolidWorks 2019',
    '' );
FILE_SCHEMA (( 'CONFIG_CONTROL_DESIGN' ));
ENDSEC;

DATA;
#1 = CALENDAR_DATE ( 2021, 6, 10 ) ;
#2 = AXIS2_PLACEMENT_3D ( 'NONE', #110, #118, #143 ) ;
#3 = ADVANCED_FACE ( 'NONE', ( #82 ), #174, .F. ) ;
#4 = APPROVAL_PERSON_ORGANIZATION ( #190, #120, #201 ) ;
#5 = APPLICATION_CONTEXT ( 'configuration controlled 3d designs of mechanical parts and assemblies' ) ;
#6 = PLANE ( 'NONE',  #37 ) ;
#7 = AXIS2_PLACEMENT_3D ( 'NONE', #79, #84, #172 ) ;
#8 = CC_DESIGN_PERSON_AND_ORGANIZATION_ASSIGNMENT ( #126, #187, ( #105 ) ) ;
#9 = FACE_OUTER_BOUND ( 'NONE', #137, .T. ) ;
#10 = CALENDAR_DATE ( 2021, 6, 10 ) ;
#11 = ADVANCED_FACE ( 'NONE', ( #156 ), #202, .F. ) ;
#12 = APPROVAL_DATE_TIME ( #47, #120 ) ;
#13 = EDGE_LOOP ( 'NONE', ( #111 ) ) ;
#14 = PERSON_AND_ORGANIZATION_ROLE ( 'design_supplier' ) ;
#15 = CYLINDRICAL_SURFACE ( 'NONE', #91, 0.6749999999999987121 ) ;
#16 = ORIENTED_EDGE ( 'NONE', *, *, #196, .T. ) ;
#17 = DIRECTION ( 'NONE',  ( -3.491481338843133355E-15, 1.224646799147353207E-16, -1.000000000000000000 ) ) ;
#18 = AXIS2_PLACEMENT_3D ( 'NONE', #28, #108, #25 ) ;
#19 = PERSON_AND_ORGANIZATION_ROLE ( 'creator' ) ;
#20 = DATE_AND_TIME ( #177, #186 ) ;
#21 = MECHANICAL_CONTEXT ( 'NONE', #5, 'mechanical' ) ;
#22 = CIRCLE ( 'NONE', #31, 0.6750000000000000444 ) ;
#23 =( NAMED_UNIT ( * ) SI_UNIT ( $, .STERADIAN. ) SOLID_ANGLE_UNIT ( ) );
#24 = PERSON ( 'UNSPECIFIED', 'UNSPECIFIED', 'UNSPECIFIED', ('UNSPECIFIED'), ('UNSPECIFIED'), ('UNSPECIFIED') ) ;
#25 = DIRECTION ( 'NONE',  ( 4.275831445896958607E-31, 1.000000000000000000, 1.224646799147353207E-16 ) ) ;
#26 = ORIENTED_EDGE ( 'NONE', *, *, #85, .T. ) ;
#27 =( GEOMETRIC_REPRESENTATION_CONTEXT ( 3 ) GLOBAL_UNCERTAINTY_ASSIGNED_CONTEXT ( ( #154 ) ) GLOBAL_UNIT_ASSIGNED_CONTEXT ( ( #88, #106, #23 ) ) REPRESENTATION_CONTEXT ( 'NONE', 'WORKASPACE' ) );
#28 = CARTESIAN_POINT ( 'NONE',  ( 0.0000000000000000000, 0.0000000000000000000, 0.0000000000000000000 ) ) ;
#29 = PERSON_AND_ORGANIZATION_ROLE ( 'classification_officer' ) ;
#30 = ORIENTED_EDGE ( 'NONE', *, *, #113, .F. ) ;
#31 = AXIS2_PLACEMENT_3D ( 'NONE', #51, #17, #65 ) ;
#32 = DATE_AND_TIME ( #10, #123 ) ;
#33 = CARTESIAN_POINT ( 'NONE',  ( 1.040461438975253740E-13, 0.6749999999999963807, 29.80000000000000071 ) ) ;
#34 = EDGE_LOOP ( 'NONE', ( #152 ) ) ;
#35 = PERSON_AND_ORGANIZATION ( #24, #170 ) ;
#36 = CARTESIAN_POINT ( 'NONE',  ( 2.793185071074506684E-14, 5.061689266483735215E-33, 8.000000000000000000 ) ) ;
#37 = AXIS2_PLACEMENT_3D ( 'NONE', #189, #52, #164 ) ;
#38 = PERSON_AND_ORGANIZATION ( #24, #170 ) ;
#39 = APPROVAL_PERSON_ORGANIZATION ( #38, #129, #72 ) ;
#40 = AXIS2_PLACEMENT_3D ( 'NONE', #36, #135, #194 ) ;
#41 = PRODUCT ( '53600', '53600', '', ( #21 ) ) ;
#42 = DIRECTION ( 'NONE',  ( -3.491481338843133355E-15, 1.224646799147353207E-16, -1.000000000000000000 ) ) ;
#43 = VERTEX_POINT ( 'NONE', #116 ) ;
#44 = APPROVAL_PERSON_ORGANIZATION ( #35, #87, #117 ) ;
#45 = EDGE_CURVE ( 'NONE', #43, #43, #58, .T. ) ;
#46 = DATE_TIME_ROLE ( 'classification_date' ) ;
#47 = DATE_AND_TIME ( #184, #64 ) ;
#48 = VERTEX_POINT ( 'NONE', #33 ) ;
#49 = CC_DESIGN_PERSON_AND_ORGANIZATION_ASSIGNMENT ( #55, #19, ( #67 ) ) ;
#50 = APPROVAL_STATUS ( 'not_yet_approved' ) ;
#51 = CARTESIAN_POINT ( 'NONE',  ( 1.040461438975253740E-13, -3.649447461459112464E-15, 29.80000000000000071 ) ) ;
#52 = DIRECTION ( 'NONE',  ( 3.491481338843133355E-15, -1.224646799147353207E-16, 1.000000000000000000 ) ) ;
#53 = COORDINATED_UNIVERSAL_TIME_OFFSET ( 1, 0, .AHEAD. ) ;
#54 = CLOSED_SHELL ( 'NONE', ( #133, #191, #147 ) ) ;
#55 = PERSON_AND_ORGANIZATION ( #24, #170 ) ;
#56 = CC_DESIGN_PERSON_AND_ORGANIZATION_ASSIGNMENT ( #93, #29, ( #144 ) ) ;
#57 = CLOSED_SHELL ( 'NONE', ( #3, #74, #171, #11 ) ) ;
#58 = CIRCLE ( 'NONE', #2, 0.4750000000000000333 ) ;
#59 = DIRECTION ( 'NONE',  ( 4.275831445896958607E-31, 1.000000000000000000, 1.224646799147353207E-16 ) ) ;
#60 = FACE_OUTER_BOUND ( 'NONE', #78, .T. ) ;
#61 = COORDINATED_UNIVERSAL_TIME_OFFSET ( 1, 0, .AHEAD. ) ;
#62 = APPROVAL_STATUS ( 'not_yet_approved' ) ;
#63 = FACE_BOUND ( 'NONE', #98, .T. ) ;
#64 = LOCAL_TIME ( 11, 22, 57.00000000000000000, #96 ) ;
#65 = DIRECTION ( 'NONE',  ( 0.0000000000000000000, 1.000000000000000000, 0.0000000000000000000 ) ) ;
#66 = CARTESIAN_POINT ( 'NONE',  ( 1.360670191324863733E-15, -4.772588574262109836E-17, 0.3897114317029997110 ) ) ;
#67 = PRODUCT_DEFINITION ( 'UNKNOWN', '', #105, #112 ) ;
#68 = DIRECTION ( 'NONE',  ( 0.0000000000000000000, 0.0000000000000000000, 1.000000000000000000 ) ) ;
#69 = APPLICATION_PROTOCOL_DEFINITION ( 'international standard', 'config_control_design', 1994, #107 ) ;
#70 = AXIS2_PLACEMENT_3D ( 'NONE', #66, #121, #181 ) ;
#71 = CARTESIAN_POINT ( 'NONE',  ( 2.793185071074506684E-14, 0.6749999999999963807, 8.000000000000000000 ) ) ;
#72 = APPROVAL_ROLE ( '' ) ;
#73 = AXIS2_PLACEMENT_3D ( 'NONE', #188, #145, #165 ) ;
#74 = ADVANCED_FACE ( 'NONE', ( #9, #203 ), #15, .T. ) ;
#75 = DIRECTION ( 'NONE',  ( -3.491481338843133355E-15, 1.224646799147353207E-16, -1.000000000000000000 ) ) ;
#76 = CC_DESIGN_APPROVAL ( #129, ( #67 ) ) ;
#77 = CARTESIAN_POINT ( 'NONE',  ( 1.047444401652940007E-13, -3.673940397442059178E-15, 30.00000000000000000 ) ) ;
#78 = EDGE_LOOP ( 'NONE', ( #16 ) ) ;
#79 = CARTESIAN_POINT ( 'NONE',  ( 2.793185071074506684E-14, -9.797174393178825657E-16, 8.000000000000000000 ) ) ;
#80 = SECURITY_CLASSIFICATION_LEVEL ( 'unclassified' ) ;
#81 = DIRECTION ( 'NONE',  ( -3.491481338843133355E-15, 1.224646799147353207E-16, -1.000000000000000000 ) ) ;
#82 = FACE_OUTER_BOUND ( 'NONE', #92, .T. ) ;
#83 = CC_DESIGN_APPROVAL ( #87, ( #144 ) ) ;
#84 = DIRECTION ( 'NONE',  ( -3.491481338843133355E-15, 1.224646799147353207E-16, -1.000000000000000000 ) ) ;
#85 = EDGE_CURVE ( 'NONE', #97, #97, #115, .T. ) ;
#86 = VERTEX_POINT ( 'NONE', #71 ) ;
#87 = APPROVAL ( #50, 'UNSPECIFIED' ) ;
#88 =( LENGTH_UNIT ( ) NAMED_UNIT ( * ) SI_UNIT ( .MILLI., .METRE. ) );
#89 = DIRECTION ( 'NONE',  ( 0.0000000000000000000, 1.000000000000000000, 0.0000000000000000000 ) ) ;
#90 = CARTESIAN_POINT ( 'NONE',  ( 2.793185071074506684E-14, -9.797174393178825657E-16, 8.000000000000000000 ) ) ;
#91 = AXIS2_PLACEMENT_3D ( 'NONE', #127, #81, #59 ) ;
#92 = EDGE_LOOP ( 'NONE', ( #26 ) ) ;
#93 = PERSON_AND_ORGANIZATION ( #24, #170 ) ;
#94 = CC_DESIGN_PERSON_AND_ORGANIZATION_ASSIGNMENT ( #168, #14, ( #105 ) ) ;
#95 = AXIS2_PLACEMENT_3D ( 'NONE', #128, #68, #148 ) ;
#96 = COORDINATED_UNIVERSAL_TIME_OFFSET ( 1, 0, .AHEAD. ) ;
#97 = VERTEX_POINT ( 'NONE', #185 ) ;
#98 = EDGE_LOOP ( 'NONE', ( #200 ) ) ;
#99 = DATE_AND_TIME ( #140, #166 ) ;
#100 = VERTEX_POINT ( 'NONE', #157 ) ;
#101 = ORIENTED_EDGE ( 'NONE', *, *, #104, .T. ) ;
#102 = AXIS2_PLACEMENT_3D ( 'NONE', #90, #122, #182 ) ;
#103 = PERSON_AND_ORGANIZATION ( #24, #170 ) ;
#104 = EDGE_CURVE ( 'NONE', #48, #48, #22, .T. ) ;
#105 = PRODUCT_DEFINITION_FORMATION_WITH_SPECIFIED_SOURCE ( 'ANY', '', #41, .NOT_KNOWN. ) ;
#106 =( NAMED_UNIT ( * ) PLANE_ANGLE_UNIT ( ) SI_UNIT ( $, .RADIAN. ) );
#107 = APPLICATION_CONTEXT ( 'configuration controlled 3d designs of mechanical parts and assemblies' ) ;
#108 = DIRECTION ( 'NONE',  ( -3.491481338843133355E-15, 1.224646799147353207E-16, -1.000000000000000000 ) ) ;
#109 = PRODUCT_RELATED_PRODUCT_CATEGORY ( 'detail', '', ( #41 ) ) ;
#110 = CARTESIAN_POINT ( 'NONE',  ( 1.047444401652940007E-13, -3.673940397442059178E-15, 30.00000000000000000 ) ) ;
#111 = ORIENTED_EDGE ( 'NONE', *, *, #113, .T. ) ;
#112 = DESIGN_CONTEXT ( 'detailed design', #107, 'design' ) ;
#113 = EDGE_CURVE ( 'NONE', #100, #100, #132, .T. ) ;
#114 = APPROVAL_DATE_TIME ( #32, #87 ) ;
#115 = CIRCLE ( 'NONE', #7, 0.6749999999999973799 ) ;
#116 = CARTESIAN_POINT ( 'NONE',  ( 1.047444401652940007E-13, 0.4749999999999963696, 30.00000000000000000 ) ) ;
#117 = APPROVAL_ROLE ( '' ) ;
#118 = DIRECTION ( 'NONE',  ( -3.491481338843133355E-15, 1.224646799147353207E-16, -1.000000000000000000 ) ) ;
#119 = COORDINATED_UNIVERSAL_TIME_OFFSET ( 1, 0, .AHEAD. ) ;
#120 = APPROVAL ( #62, 'UNSPECIFIED' ) ;
#121 = DIRECTION ( 'NONE',  ( 3.491481338843133355E-15, -1.224646799147353207E-16, 1.000000000000000000 ) ) ;
#122 = DIRECTION ( 'NONE',  ( -3.491481338843133355E-15, 1.224646799147353207E-16, -1.000000000000000000 ) ) ;
#123 = LOCAL_TIME ( 11, 22, 57.00000000000000000, #153 ) ;
#124 = CYLINDRICAL_SURFACE ( 'NONE', #18, 0.6749999999999968248 ) ;
#125 = ORIENTED_EDGE ( 'NONE', *, *, #196, .F. ) ;
#126 = PERSON_AND_ORGANIZATION ( #24, #170 ) ;
#127 = CARTESIAN_POINT ( 'NONE',  ( 0.0000000000000000000, 0.0000000000000000000, 0.0000000000000000000 ) ) ;
#128 = CARTESIAN_POINT ( 'NONE',  ( 0.0000000000000000000, 0.0000000000000000000, 0.0000000000000000000 ) ) ;
#129 = APPROVAL ( #131, 'UNSPECIFIED' ) ;
#130 = DATE_TIME_ROLE ( 'creation_date' ) ;
#131 = APPROVAL_STATUS ( 'not_yet_approved' ) ;
#132 = CIRCLE ( 'NONE', #192, 0.6749999999999963807 ) ;
#133 = ADVANCED_FACE ( 'NONE', ( #167 ), #155, .T. ) ;
#134 = CIRCLE ( 'NONE', #102, 0.6749999999999973799 ) ;
#135 = DIRECTION ( 'NONE',  ( 3.491481338843133355E-15, -1.224646799147353207E-16, 1.000000000000000000 ) ) ;
#136 = FACE_OUTER_BOUND ( 'NONE', #34, .T. ) ;
#137 = EDGE_LOOP ( 'NONE', ( #198 ) ) ;
#138 = EDGE_LOOP ( 'NONE', ( #30 ) ) ;
#139 = EDGE_LOOP ( 'NONE', ( #125 ) ) ;
#140 = CALENDAR_DATE ( 2021, 6, 10 ) ;
#141 = CARTESIAN_POINT ( 'NONE',  ( 1.360670191324863733E-15, -4.772588574262109836E-17, 0.3897114317029997110 ) ) ;
#142 = CC_DESIGN_DATE_AND_TIME_ASSIGNMENT ( #99, #46, ( #144 ) ) ;
#143 = DIRECTION ( 'NONE',  ( 0.0000000000000000000, 1.000000000000000000, 0.0000000000000000000 ) ) ;
#144 = SECURITY_CLASSIFICATION ( '', '', #80 ) ;
#145 = DIRECTION ( 'NONE',  ( -3.491481338843133355E-15, 1.224646799147353207E-16, -1.000000000000000000 ) ) ;
#146 = MANIFOLD_SOLID_BREP ( 'Corps-Déplacer/Copier1[2]', #54 ) ;
#147 = ADVANCED_FACE ( 'NONE', ( #199 ), #6, .T. ) ;
#148 = DIRECTION ( 'NONE',  ( 1.000000000000000000, 0.0000000000000000000, 0.0000000000000000000 ) ) ;
#149 = MANIFOLD_SOLID_BREP ( 'Corps-Déplacer/Copier1[1]', #57 ) ;
#150 = CC_DESIGN_SECURITY_CLASSIFICATION ( #144, ( #105 ) ) ;
#151 = FACE_OUTER_BOUND ( 'NONE', #138, .T. ) ;
#152 = ORIENTED_EDGE ( 'NONE', *, *, #104, .F. ) ;
#153 = COORDINATED_UNIVERSAL_TIME_OFFSET ( 1, 0, .AHEAD. ) ;
#154 = UNCERTAINTY_MEASURE_WITH_UNIT (LENGTH_MEASURE( 1.000000000000000082E-05 ), #88, 'distance_accuracy_value', 'NONE');
#155 = CONICAL_SURFACE ( 'NONE', #70, 0.6749999999999963807, 1.047197551196592746 ) ;
#156 = FACE_OUTER_BOUND ( 'NONE', #183, .T. ) ;
#157 = CARTESIAN_POINT ( 'NONE',  ( 1.360670191324863931E-15, 0.6749999999999963807, 0.3897114317029998221 ) ) ;
#158 = ORIENTED_EDGE ( 'NONE', *, *, #45, .F. ) ;
#159 = PERSON_AND_ORGANIZATION_ROLE ( 'design_owner' ) ;
#160 = DATE_AND_TIME ( #1, #161 ) ;
#161 = LOCAL_TIME ( 11, 22, 57.00000000000000000, #53 ) ;
#162 = PRODUCT_DEFINITION_SHAPE ( 'NONE', 'NONE',  #67 ) ;
#163 = ADVANCED_BREP_SHAPE_REPRESENTATION ( '53600', ( #149, #146, #95 ), #27 ) ;
#164 = DIRECTION ( 'NONE',  ( -4.275831445896958607E-31, -1.000000000000000000, -1.224646799147353207E-16 ) ) ;
#165 = DIRECTION ( 'NONE',  ( 4.275831445896958607E-31, 1.000000000000000000, 1.224646799147353207E-16 ) ) ;
#166 = LOCAL_TIME ( 11, 22, 57.00000000000000000, #61 ) ;
#167 = FACE_OUTER_BOUND ( 'NONE', #13, .T. ) ;
#168 = PERSON_AND_ORGANIZATION ( #24, #170 ) ;
#169 = CONICAL_SURFACE ( 'NONE', #180, 0.4750000000000000333, 0.7853981633974512766 ) ;
#170 = ORGANIZATION ( 'UNSPECIFIED', 'UNSPECIFIED', '' ) ;
#171 = ADVANCED_FACE ( 'NONE', ( #136, #63 ), #169, .T. ) ;
#172 = DIRECTION ( 'NONE',  ( 0.0000000000000000000, 1.000000000000000000, 0.0000000000000000000 ) ) ;
#173 = EDGE_LOOP ( 'NONE', ( #101 ) ) ;
#174 = PLANE ( 'NONE',  #40 ) ;
#175 = CC_DESIGN_PERSON_AND_ORGANIZATION_ASSIGNMENT ( #103, #159, ( #41 ) ) ;
#176 = APPROVAL_DATE_TIME ( #160, #129 ) ;
#177 = CALENDAR_DATE ( 2021, 6, 10 ) ;
#178 = CC_DESIGN_APPROVAL ( #120, ( #105 ) ) ;
#179 = CC_DESIGN_DATE_AND_TIME_ASSIGNMENT ( #20, #130, ( #67 ) ) ;
#180 = AXIS2_PLACEMENT_3D ( 'NONE', #77, #75, #89 ) ;
#181 = DIRECTION ( 'NONE',  ( -2.853229547240364820E-31, -1.000000000000000000, -1.606225440719274502E-16 ) ) ;
#182 = DIRECTION ( 'NONE',  ( 0.0000000000000000000, 1.000000000000000000, 0.0000000000000000000 ) ) ;
#183 = EDGE_LOOP ( 'NONE', ( #158 ) ) ;
#184 = CALENDAR_DATE ( 2021, 6, 10 ) ;
#185 = CARTESIAN_POINT ( 'NONE',  ( 2.793185071074506684E-14, 0.6749999999999963807, 8.000000000000000000 ) ) ;
#186 = LOCAL_TIME ( 11, 22, 57.00000000000000000, #119 ) ;
#187 = PERSON_AND_ORGANIZATION_ROLE ( 'creator' ) ;
#188 = CARTESIAN_POINT ( 'NONE',  ( 1.047444401652940007E-13, 3.561929483821856396E-33, 30.00000000000000000 ) ) ;
#189 = CARTESIAN_POINT ( 'NONE',  ( 2.793185071074506684E-14, 5.061689266483735215E-33, 8.000000000000000000 ) ) ;
#190 = PERSON_AND_ORGANIZATION ( #24, #170 ) ;
#191 = ADVANCED_FACE ( 'NONE', ( #151, #60 ), #124, .T. ) ;
#192 = AXIS2_PLACEMENT_3D ( 'NONE', #141, #42, #195 ) ;
#193 = APPLICATION_PROTOCOL_DEFINITION ( 'international standard', 'config_control_design', 1994, #5 ) ;
#194 = DIRECTION ( 'NONE',  ( -4.275831445896958607E-31, -1.000000000000000000, -1.224646799147353207E-16 ) ) ;
#195 = DIRECTION ( 'NONE',  ( 2.853229547240364820E-31, 1.000000000000000000, 1.606225440719274502E-16 ) ) ;
#196 = EDGE_CURVE ( 'NONE', #86, #86, #134, .T. ) ;
#197 = SHAPE_DEFINITION_REPRESENTATION ( #162, #163 ) ;
#198 = ORIENTED_EDGE ( 'NONE', *, *, #85, .F. ) ;
#199 = FACE_OUTER_BOUND ( 'NONE', #139, .T. ) ;
#200 = ORIENTED_EDGE ( 'NONE', *, *, #45, .T. ) ;
#201 = APPROVAL_ROLE ( '' ) ;
#202 = PLANE ( 'NONE',  #73 ) ;
#203 = FACE_OUTER_BOUND ( 'NONE', #173, .T. ) ;
ENDSEC;
END-ISO-10303-21;
