ISO-10303-21;
HEADER;
FILE_DESCRIPTION (( 'STEP AP203' ),
    '1' );
FILE_NAME ('53599.step',
    '2021-10-06T09:22:56',
    ( '' ),
    ( '' ),
    'SwSTEP 2.0',
    'SolidWorks 2019',
    '' );
FILE_SCHEMA (( 'CONFIG_CONTROL_DESIGN' ));
ENDSEC;

DATA;
#1 = PLANE ( 'NONE',  #3 ) ;
#2 = VERTEX_POINT ( 'NONE', #38 ) ;
#3 = AXIS2_PLACEMENT_3D ( 'NONE', #84, #117, #98 ) ;
#4 = DIRECTION ( 'NONE',  ( -3.491481338843133355E-15, 1.224646799147353207E-16, -1.000000000000000000 ) ) ;
#5 = ADVANCED_FACE ( 'NONE', ( #166, #26 ), #169, .T. ) ;
#6 = CC_DESIGN_APPROVAL ( #160, ( #115 ) ) ;
#7 = PERSON ( 'UNSPECIFIED', 'UNSPECIFIED', 'UNSPECIFIED', ('UNSPECIFIED'), ('UNSPECIFIED'), ('UNSPECIFIED') ) ;
#8 = MANIFOLD_SOLID_BREP ( 'Corps-Déplacer/Copier1[1]', #134 ) ;
#9 = PERSON_AND_ORGANIZATION ( #7, #95 ) ;
#10 = CALENDAR_DATE ( 2021, 6, 10 ) ;
#11 = CARTESIAN_POINT ( 'NONE',  ( 1.310274999053572389E-15, -4.595826034474623419E-17, 0.3752776749732589789 ) ) ;
#12 = APPROVAL_ROLE ( '' ) ;
#13 = DIRECTION ( 'NONE',  ( -3.491481338843133355E-15, 1.224646799147353207E-16, -1.000000000000000000 ) ) ;
#14 = AXIS2_PLACEMENT_3D ( 'NONE', #168, #83, #51 ) ;
#15 = ORIENTED_EDGE ( 'NONE', *, *, #102, .T. ) ;
#16 = COORDINATED_UNIVERSAL_TIME_OFFSET ( 1, 0, .AHEAD. ) ;
#17 = CARTESIAN_POINT ( 'NONE',  ( 0.0000000000000000000, 0.0000000000000000000, 0.0000000000000000000 ) ) ;
#18 = DIRECTION ( 'NONE',  ( -3.491481338843133355E-15, 1.224646799147353207E-16, -1.000000000000000000 ) ) ;
#19 = PRODUCT_DEFINITION ( 'UNKNOWN', '', #159, #110 ) ;
#20 = AXIS2_PLACEMENT_3D ( 'NONE', #47, #185, #50 ) ;
#21 = CALENDAR_DATE ( 2021, 6, 10 ) ;
#22 = ORIENTED_EDGE ( 'NONE', *, *, #129, .F. ) ;
#23 =( NAMED_UNIT ( * ) SI_UNIT ( $, .STERADIAN. ) SOLID_ANGLE_UNIT ( ) );
#24 = EDGE_LOOP ( 'NONE', ( #199 ) ) ;
#25 = PERSON_AND_ORGANIZATION ( #7, #95 ) ;
#26 = FACE_OUTER_BOUND ( 'NONE', #182, .T. ) ;
#27 = PERSON_AND_ORGANIZATION ( #7, #95 ) ;
#28 = PRODUCT_RELATED_PRODUCT_CATEGORY ( 'detail', '', ( #145 ) ) ;
#29 = ADVANCED_FACE ( 'NONE', ( #107, #105 ), #202, .T. ) ;
#30 = DATE_AND_TIME ( #170, #190 ) ;
#31 = EDGE_LOOP ( 'NONE', ( #121 ) ) ;
#32 = PLANE ( 'NONE',  #14 ) ;
#33 = AXIS2_PLACEMENT_3D ( 'NONE', #189, #70, #116 ) ;
#34 = AXIS2_PLACEMENT_3D ( 'NONE', #186, #4, #132 ) ;
#35 = ADVANCED_FACE ( 'NONE', ( #80 ), #67, .T. ) ;
#36 = AXIS2_PLACEMENT_3D ( 'NONE', #150, #137, #91 ) ;
#37 = CC_DESIGN_DATE_AND_TIME_ASSIGNMENT ( #167, #191, ( #115 ) ) ;
#38 = CARTESIAN_POINT ( 'NONE',  ( 2.793185071074506684E-14, 0.6499999999999962474, 8.000000000000000000 ) ) ;
#39 =( GEOMETRIC_REPRESENTATION_CONTEXT ( 3 ) GLOBAL_UNCERTAINTY_ASSIGNED_CONTEXT ( ( #93 ) ) GLOBAL_UNIT_ASSIGNED_CONTEXT ( ( #165, #97, #23 ) ) REPRESENTATION_CONTEXT ( 'NONE', 'WORKASPACE' ) );
#40 = CIRCLE ( 'NONE', #33, 0.6499999999999962474 ) ;
#41 = SHAPE_DEFINITION_REPRESENTATION ( #131, #172 ) ;
#42 = EDGE_LOOP ( 'NONE', ( #58 ) ) ;
#43 = COORDINATED_UNIVERSAL_TIME_OFFSET ( 1, 0, .AHEAD. ) ;
#44 = ORIENTED_EDGE ( 'NONE', *, *, #87, .F. ) ;
#45 = APPROVAL_ROLE ( '' ) ;
#46 = PERSON_AND_ORGANIZATION ( #7, #95 ) ;
#47 = CARTESIAN_POINT ( 'NONE',  ( 1.047444401652940007E-13, -3.673940397442059178E-15, 30.00000000000000000 ) ) ;
#48 = DIRECTION ( 'NONE',  ( -3.491481338843133355E-15, 1.224646799147353207E-16, -1.000000000000000000 ) ) ;
#49 = APPROVAL_STATUS ( 'not_yet_approved' ) ;
#50 = DIRECTION ( 'NONE',  ( 0.0000000000000000000, 1.000000000000000000, 0.0000000000000000000 ) ) ;
#51 = DIRECTION ( 'NONE',  ( -4.275831445896958607E-31, -1.000000000000000000, -1.224646799147353207E-16 ) ) ;
#52 = LOCAL_TIME ( 11, 22, 56.00000000000000000, #43 ) ;
#53 = CIRCLE ( 'NONE', #158, 0.6499999999999972466 ) ;
#54 = DIRECTION ( 'NONE',  ( 0.0000000000000000000, 1.000000000000000000, 0.0000000000000000000 ) ) ;
#55 = CARTESIAN_POINT ( 'NONE',  ( 1.040461438975253740E-13, -3.649447461459112464E-15, 29.80000000000000071 ) ) ;
#56 = CC_DESIGN_APPROVAL ( #119, ( #19 ) ) ;
#57 = DIRECTION ( 'NONE',  ( 1.000000000000000000, 0.0000000000000000000, 0.0000000000000000000 ) ) ;
#58 = ORIENTED_EDGE ( 'NONE', *, *, #129, .T. ) ;
#59 = APPROVAL_STATUS ( 'not_yet_approved' ) ;
#60 = CARTESIAN_POINT ( 'NONE',  ( 1.047444401652940007E-13, 0.4499999999999962919, 30.00000000000000000 ) ) ;
#61 = PERSON_AND_ORGANIZATION ( #7, #95 ) ;
#62 = VERTEX_POINT ( 'NONE', #76 ) ;
#63 = EDGE_LOOP ( 'NONE', ( #44 ) ) ;
#64 = PERSON_AND_ORGANIZATION ( #7, #95 ) ;
#65 = EDGE_LOOP ( 'NONE', ( #73 ) ) ;
#66 = PERSON_AND_ORGANIZATION ( #7, #95 ) ;
#67 = CONICAL_SURFACE ( 'NONE', #175, 0.6499999999999962474, 1.047197551196592746 ) ;
#68 = CC_DESIGN_DATE_AND_TIME_ASSIGNMENT ( #30, #92, ( #19 ) ) ;
#69 = APPROVAL_PERSON_ORGANIZATION ( #64, #72, #12 ) ;
#70 = DIRECTION ( 'NONE',  ( -3.491481338843133355E-15, 1.224646799147353207E-16, -1.000000000000000000 ) ) ;
#71 = ADVANCED_FACE ( 'NONE', ( #123 ), #152, .F. ) ;
#72 = APPROVAL ( #96, 'UNSPECIFIED' ) ;
#73 = ORIENTED_EDGE ( 'NONE', *, *, #120, .F. ) ;
#74 = ORIENTED_EDGE ( 'NONE', *, *, #120, .T. ) ;
#75 = COORDINATED_UNIVERSAL_TIME_OFFSET ( 1, 0, .AHEAD. ) ;
#76 = CARTESIAN_POINT ( 'NONE',  ( 2.793185071074506684E-14, 0.6499999999999962474, 8.000000000000000000 ) ) ;
#77 = CARTESIAN_POINT ( 'NONE',  ( 1.047444401652940007E-13, 3.374459510989123511E-33, 30.00000000000000000 ) ) ;
#78 = LOCAL_TIME ( 11, 22, 56.00000000000000000, #75 ) ;
#79 = PERSON_AND_ORGANIZATION ( #7, #95 ) ;
#80 = FACE_OUTER_BOUND ( 'NONE', #42, .T. ) ;
#81 = CARTESIAN_POINT ( 'NONE',  ( 1.047444401652940007E-13, -3.673940397442059178E-15, 30.00000000000000000 ) ) ;
#82 = MANIFOLD_SOLID_BREP ( 'Corps-Déplacer/Copier1[2]', #94 ) ;
#83 = DIRECTION ( 'NONE',  ( 3.491481338843133355E-15, -1.224646799147353207E-16, 1.000000000000000000 ) ) ;
#84 = CARTESIAN_POINT ( 'NONE',  ( 2.793185071074506684E-14, 4.874219293651002330E-33, 8.000000000000000000 ) ) ;
#85 = VERTEX_POINT ( 'NONE', #60 ) ;
#86 = CC_DESIGN_PERSON_AND_ORGANIZATION_ASSIGNMENT ( #79, #124, ( #159 ) ) ;
#87 = EDGE_CURVE ( 'NONE', #85, #85, #90, .T. ) ;
#88 = DIRECTION ( 'NONE',  ( -3.491481338843133355E-15, 1.224646799147353207E-16, -1.000000000000000000 ) ) ;
#89 = AXIS2_PLACEMENT_3D ( 'NONE', #112, #164, #57 ) ;
#90 = CIRCLE ( 'NONE', #198, 0.4500000000000000111 ) ;
#91 = DIRECTION ( 'NONE',  ( 4.275831445896958607E-31, 1.000000000000000000, 1.224646799147353207E-16 ) ) ;
#92 = DATE_TIME_ROLE ( 'creation_date' ) ;
#93 = UNCERTAINTY_MEASURE_WITH_UNIT (LENGTH_MEASURE( 1.000000000000000082E-05 ), #165, 'distance_accuracy_value', 'NONE');
#94 = CLOSED_SHELL ( 'NONE', ( #35, #29, #153 ) ) ;
#95 = ORGANIZATION ( 'UNSPECIFIED', 'UNSPECIFIED', '' ) ;
#96 = APPROVAL_STATUS ( 'not_yet_approved' ) ;
#97 =( NAMED_UNIT ( * ) PLANE_ANGLE_UNIT ( ) SI_UNIT ( $, .RADIAN. ) );
#98 = DIRECTION ( 'NONE',  ( -4.275831445896958607E-31, -1.000000000000000000, -1.224646799147353207E-16 ) ) ;
#99 = AXIS2_PLACEMENT_3D ( 'NONE', #17, #13, #181 ) ;
#100 = APPLICATION_CONTEXT ( 'configuration controlled 3d designs of mechanical parts and assemblies' ) ;
#101 = AXIS2_PLACEMENT_3D ( 'NONE', #55, #118, #174 ) ;
#102 = EDGE_CURVE ( 'NONE', #2, #2, #146, .T. ) ;
#103 = APPLICATION_PROTOCOL_DEFINITION ( 'international standard', 'config_control_design', 1994, #100 ) ;
#104 = DATE_AND_TIME ( #21, #113 ) ;
#105 = FACE_OUTER_BOUND ( 'NONE', #140, .T. ) ;
#106 = APPROVAL_DATE_TIME ( #136, #119 ) ;
#107 = FACE_OUTER_BOUND ( 'NONE', #163, .T. ) ;
#108 = PERSON_AND_ORGANIZATION_ROLE ( 'design_supplier' ) ;
#109 = CARTESIAN_POINT ( 'NONE',  ( 1.310274999053572586E-15, 0.6499999999999962474, 0.3752776749732590345 ) ) ;
#110 = DESIGN_CONTEXT ( 'detailed design', #128, 'design' ) ;
#111 = DIRECTION ( 'NONE',  ( 4.275831445896958607E-31, 1.000000000000000000, 1.224646799147353207E-16 ) ) ;
#112 = CARTESIAN_POINT ( 'NONE',  ( 0.0000000000000000000, 0.0000000000000000000, 0.0000000000000000000 ) ) ;
#113 = LOCAL_TIME ( 11, 22, 56.00000000000000000, #127 ) ;
#114 = FACE_OUTER_BOUND ( 'NONE', #184, .T. ) ;
#115 = SECURITY_CLASSIFICATION ( '', '', #203 ) ;
#116 = DIRECTION ( 'NONE',  ( 2.962969145211149362E-31, 1.000000000000000000, 8.340016711427005825E-17 ) ) ;
#117 = DIRECTION ( 'NONE',  ( 3.491481338843133355E-15, -1.224646799147353207E-16, 1.000000000000000000 ) ) ;
#118 = DIRECTION ( 'NONE',  ( -3.491481338843133355E-15, 1.224646799147353207E-16, -1.000000000000000000 ) ) ;
#119 = APPROVAL ( #49, 'UNSPECIFIED' ) ;
#120 = EDGE_CURVE ( 'NONE', #62, #62, #53, .T. ) ;
#121 = ORIENTED_EDGE ( 'NONE', *, *, #157, .F. ) ;
#122 = APPROVAL_DATE_TIME ( #130, #160 ) ;
#123 = FACE_OUTER_BOUND ( 'NONE', #63, .T. ) ;
#124 = PERSON_AND_ORGANIZATION_ROLE ( 'creator' ) ;
#125 = VERTEX_POINT ( 'NONE', #201 ) ;
#126 = DIRECTION ( 'NONE',  ( -2.962969145211149362E-31, -1.000000000000000000, -8.340016711427005825E-17 ) ) ;
#127 = COORDINATED_UNIVERSAL_TIME_OFFSET ( 1, 0, .AHEAD. ) ;
#128 = APPLICATION_CONTEXT ( 'configuration controlled 3d designs of mechanical parts and assemblies' ) ;
#129 = EDGE_CURVE ( 'NONE', #196, #196, #40, .T. ) ;
#130 = DATE_AND_TIME ( #195, #142 ) ;
#131 = PRODUCT_DEFINITION_SHAPE ( 'NONE', 'NONE',  #19 ) ;
#132 = DIRECTION ( 'NONE',  ( 0.0000000000000000000, 1.000000000000000000, 0.0000000000000000000 ) ) ;
#133 = FACE_OUTER_BOUND ( 'NONE', #31, .T. ) ;
#134 = CLOSED_SHELL ( 'NONE', ( #187, #5, #178, #71 ) ) ;
#135 = COORDINATED_UNIVERSAL_TIME_OFFSET ( 1, 0, .AHEAD. ) ;
#136 = DATE_AND_TIME ( #10, #52 ) ;
#137 = DIRECTION ( 'NONE',  ( -3.491481338843133355E-15, 1.224646799147353207E-16, -1.000000000000000000 ) ) ;
#138 = MECHANICAL_CONTEXT ( 'NONE', #100, 'mechanical' ) ;
#139 = CONICAL_SURFACE ( 'NONE', #20, 0.4500000000000000111, 0.7853981633974512766 ) ;
#140 = EDGE_LOOP ( 'NONE', ( #74 ) ) ;
#141 = APPLICATION_PROTOCOL_DEFINITION ( 'international standard', 'config_control_design', 1994, #128 ) ;
#142 = LOCAL_TIME ( 11, 22, 56.00000000000000000, #16 ) ;
#143 = DIRECTION ( 'NONE',  ( 0.0000000000000000000, 1.000000000000000000, 0.0000000000000000000 ) ) ;
#144 = FACE_OUTER_BOUND ( 'NONE', #65, .T. ) ;
#145 = PRODUCT ( '53599', '53599', '', ( #138 ) ) ;
#146 = CIRCLE ( 'NONE', #34, 0.6499999999999972466 ) ;
#147 = CC_DESIGN_PERSON_AND_ORGANIZATION_ASSIGNMENT ( #66, #193, ( #115 ) ) ;
#148 = AXIS2_PLACEMENT_3D ( 'NONE', #77, #48, #111 ) ;
#149 = PERSON_AND_ORGANIZATION_ROLE ( 'design_owner' ) ;
#150 = CARTESIAN_POINT ( 'NONE',  ( 0.0000000000000000000, 0.0000000000000000000, 0.0000000000000000000 ) ) ;
#151 = APPROVAL_DATE_TIME ( #104, #72 ) ;
#152 = PLANE ( 'NONE',  #148 ) ;
#153 = ADVANCED_FACE ( 'NONE', ( #144 ), #1, .T. ) ;
#154 = APPROVAL_PERSON_ORGANIZATION ( #46, #119, #45 ) ;
#155 = APPROVAL_ROLE ( '' ) ;
#156 = CARTESIAN_POINT ( 'NONE',  ( 2.793185071074506684E-14, -9.797174393178825657E-16, 8.000000000000000000 ) ) ;
#157 = EDGE_CURVE ( 'NONE', #125, #125, #177, .T. ) ;
#158 = AXIS2_PLACEMENT_3D ( 'NONE', #156, #18, #54 ) ;
#159 = PRODUCT_DEFINITION_FORMATION_WITH_SPECIFIED_SOURCE ( 'ANY', '', #145, .NOT_KNOWN. ) ;
#160 = APPROVAL ( #59, 'UNSPECIFIED' ) ;
#161 = ORIENTED_EDGE ( 'NONE', *, *, #102, .F. ) ;
#162 = CC_DESIGN_PERSON_AND_ORGANIZATION_ASSIGNMENT ( #9, #200, ( #19 ) ) ;
#163 = EDGE_LOOP ( 'NONE', ( #22 ) ) ;
#164 = DIRECTION ( 'NONE',  ( 0.0000000000000000000, 0.0000000000000000000, 1.000000000000000000 ) ) ;
#165 =( LENGTH_UNIT ( ) NAMED_UNIT ( * ) SI_UNIT ( .MILLI., .METRE. ) );
#166 = FACE_OUTER_BOUND ( 'NONE', #192, .T. ) ;
#167 = DATE_AND_TIME ( #183, #78 ) ;
#168 = CARTESIAN_POINT ( 'NONE',  ( 2.793185071074506684E-14, 4.874219293651002330E-33, 8.000000000000000000 ) ) ;
#169 = CYLINDRICAL_SURFACE ( 'NONE', #99, 0.6499999999999986899 ) ;
#170 = CALENDAR_DATE ( 2021, 6, 10 ) ;
#171 = CC_DESIGN_PERSON_AND_ORGANIZATION_ASSIGNMENT ( #25, #149, ( #145 ) ) ;
#172 = ADVANCED_BREP_SHAPE_REPRESENTATION ( '53599', ( #8, #82, #89 ), #39 ) ;
#173 = CC_DESIGN_SECURITY_CLASSIFICATION ( #115, ( #159 ) ) ;
#174 = DIRECTION ( 'NONE',  ( 0.0000000000000000000, 1.000000000000000000, 0.0000000000000000000 ) ) ;
#175 = AXIS2_PLACEMENT_3D ( 'NONE', #11, #194, #126 ) ;
#176 = FACE_BOUND ( 'NONE', #24, .T. ) ;
#177 = CIRCLE ( 'NONE', #101, 0.6500000000000000222 ) ;
#178 = ADVANCED_FACE ( 'NONE', ( #133, #176 ), #139, .T. ) ;
#179 = ORIENTED_EDGE ( 'NONE', *, *, #157, .T. ) ;
#180 = CC_DESIGN_PERSON_AND_ORGANIZATION_ASSIGNMENT ( #61, #108, ( #159 ) ) ;
#181 = DIRECTION ( 'NONE',  ( 4.275831445896958607E-31, 1.000000000000000000, 1.224646799147353207E-16 ) ) ;
#182 = EDGE_LOOP ( 'NONE', ( #179 ) ) ;
#183 = CALENDAR_DATE ( 2021, 6, 10 ) ;
#184 = EDGE_LOOP ( 'NONE', ( #15 ) ) ;
#185 = DIRECTION ( 'NONE',  ( -3.491481338843133355E-15, 1.224646799147353207E-16, -1.000000000000000000 ) ) ;
#186 = CARTESIAN_POINT ( 'NONE',  ( 2.793185071074506684E-14, -9.797174393178825657E-16, 8.000000000000000000 ) ) ;
#187 = ADVANCED_FACE ( 'NONE', ( #114 ), #32, .F. ) ;
#188 = APPROVAL_PERSON_ORGANIZATION ( #27, #160, #155 ) ;
#189 = CARTESIAN_POINT ( 'NONE',  ( 1.310274999053572389E-15, -4.595826034474623419E-17, 0.3752776749732589789 ) ) ;
#190 = LOCAL_TIME ( 11, 22, 56.00000000000000000, #135 ) ;
#191 = DATE_TIME_ROLE ( 'classification_date' ) ;
#192 = EDGE_LOOP ( 'NONE', ( #161 ) ) ;
#193 = PERSON_AND_ORGANIZATION_ROLE ( 'classification_officer' ) ;
#194 = DIRECTION ( 'NONE',  ( 3.491481338843133355E-15, -1.224646799147353207E-16, 1.000000000000000000 ) ) ;
#195 = CALENDAR_DATE ( 2021, 6, 10 ) ;
#196 = VERTEX_POINT ( 'NONE', #109 ) ;
#197 = CC_DESIGN_APPROVAL ( #72, ( #159 ) ) ;
#198 = AXIS2_PLACEMENT_3D ( 'NONE', #81, #88, #143 ) ;
#199 = ORIENTED_EDGE ( 'NONE', *, *, #87, .T. ) ;
#200 = PERSON_AND_ORGANIZATION_ROLE ( 'creator' ) ;
#201 = CARTESIAN_POINT ( 'NONE',  ( 1.040461438975253740E-13, 0.6499999999999962474, 29.80000000000000071 ) ) ;
#202 = CYLINDRICAL_SURFACE ( 'NONE', #36, 0.6499999999999966915 ) ;
#203 = SECURITY_CLASSIFICATION_LEVEL ( 'unclassified' ) ;
ENDSEC;
END-ISO-10303-21;
