ISO-10303-21;
HEADER;
FILE_DESCRIPTION (( 'STEP AP203' ),
    '1' );
FILE_NAME ('53598.step',
    '2021-10-06T09:22:56',
    ( '' ),
    ( '' ),
    'SwSTEP 2.0',
    'SolidWorks 2019',
    '' );
FILE_SCHEMA (( 'CONFIG_CONTROL_DESIGN' ));
ENDSEC;

DATA;
#1 = PLANE ( 'NONE',  #176 ) ;
#2 = DIRECTION ( 'NONE',  ( -4.275831445896958607E-31, -1.000000000000000000, -1.224646799147353207E-16 ) ) ;
#3 = FACE_OUTER_BOUND ( 'NONE', #122, .T. ) ;
#4 = CC_DESIGN_DATE_AND_TIME_ASSIGNMENT ( #190, #112, ( #163 ) ) ;
#5 = CALENDAR_DATE ( 2021, 6, 10 ) ;
#6 = CIRCLE ( 'NONE', #38, 0.6250000000000000000 ) ;
#7 = CC_DESIGN_SECURITY_CLASSIFICATION ( #179, ( #185 ) ) ;
#8 = DATE_AND_TIME ( #5, #16 ) ;
#9 = EDGE_LOOP ( 'NONE', ( #22 ) ) ;
#10 = DIRECTION ( 'NONE',  ( -3.491481338843133355E-15, 1.224646799147353207E-16, -1.000000000000000000 ) ) ;
#11 = DIRECTION ( 'NONE',  ( -3.491481338843133355E-15, 1.224646799147353207E-16, -1.000000000000000000 ) ) ;
#12 = DIRECTION ( 'NONE',  ( 0.0000000000000000000, 1.000000000000000000, 0.0000000000000000000 ) ) ;
#13 = DIRECTION ( 'NONE',  ( -3.491481338843133355E-15, 1.224646799147353207E-16, -1.000000000000000000 ) ) ;
#14 = AXIS2_PLACEMENT_3D ( 'NONE', #150, #167, #28 ) ;
#15 =( NAMED_UNIT ( * ) SI_UNIT ( $, .STERADIAN. ) SOLID_ANGLE_UNIT ( ) );
#16 = LOCAL_TIME ( 11, 22, 56.00000000000000000, #101 ) ;
#17 = ORIENTED_EDGE ( 'NONE', *, *, #147, .F. ) ;
#18 = EDGE_CURVE ( 'NONE', #109, #109, #90, .T. ) ;
#19 = DIRECTION ( 'NONE',  ( -3.491481338843133355E-15, 1.224646799147353207E-16, -1.000000000000000000 ) ) ;
#20 = FACE_OUTER_BOUND ( 'NONE', #58, .T. ) ;
#21 = COORDINATED_UNIVERSAL_TIME_OFFSET ( 1, 0, .AHEAD. ) ;
#22 = ORIENTED_EDGE ( 'NONE', *, *, #203, .T. ) ;
#23 = SECURITY_CLASSIFICATION_LEVEL ( 'unclassified' ) ;
#24 = EDGE_CURVE ( 'NONE', #78, #78, #40, .T. ) ;
#25 = DIRECTION ( 'NONE',  ( -3.081487911019595319E-31, -1.000000000000000000, -8.673617379884086008E-17 ) ) ;
#26 =( GEOMETRIC_REPRESENTATION_CONTEXT ( 3 ) GLOBAL_UNCERTAINTY_ASSIGNED_CONTEXT ( ( #180 ) ) GLOBAL_UNIT_ASSIGNED_CONTEXT ( ( #89, #30, #15 ) ) REPRESENTATION_CONTEXT ( 'NONE', 'WORKASPACE' ) );
#27 = EDGE_CURVE ( 'NONE', #200, #200, #6, .T. ) ;
#28 = DIRECTION ( 'NONE',  ( -4.275831445896958607E-31, -1.000000000000000000, -1.224646799147353207E-16 ) ) ;
#29 = CC_DESIGN_PERSON_AND_ORGANIZATION_ASSIGNMENT ( #67, #130, ( #179 ) ) ;
#30 =( NAMED_UNIT ( * ) PLANE_ANGLE_UNIT ( ) SI_UNIT ( $, .RADIAN. ) );
#31 = APPROVAL ( #72, 'UNSPECIFIED' ) ;
#32 = AXIS2_PLACEMENT_3D ( 'NONE', #162, #86, #2 ) ;
#33 = CARTESIAN_POINT ( 'NONE',  ( 0.0000000000000000000, 0.0000000000000000000, 0.0000000000000000000 ) ) ;
#34 = APPROVAL_STATUS ( 'not_yet_approved' ) ;
#35 = ORIENTED_EDGE ( 'NONE', *, *, #147, .T. ) ;
#36 = APPROVAL_DATE_TIME ( #182, #138 ) ;
#37 = EDGE_LOOP ( 'NONE', ( #17 ) ) ;
#38 = AXIS2_PLACEMENT_3D ( 'NONE', #92, #19, #80 ) ;
#39 = PERSON_AND_ORGANIZATION ( #77, #70 ) ;
#40 = CIRCLE ( 'NONE', #94, 0.4250000000000000444 ) ;
#41 = MECHANICAL_CONTEXT ( 'NONE', #168, 'mechanical' ) ;
#42 = EDGE_LOOP ( 'NONE', ( #35 ) ) ;
#43 = CARTESIAN_POINT ( 'NONE',  ( 0.0000000000000000000, 0.0000000000000000000, 0.0000000000000000000 ) ) ;
#44 = CYLINDRICAL_SURFACE ( 'NONE', #128, 0.6249999999999968914 ) ;
#45 = AXIS2_PLACEMENT_3D ( 'NONE', #46, #47, #76 ) ;
#46 = CARTESIAN_POINT ( 'NONE',  ( 1.047444401652940007E-13, -3.673940397442059178E-15, 30.00000000000000000 ) ) ;
#47 = DIRECTION ( 'NONE',  ( -3.491481338843133355E-15, 1.224646799147353207E-16, -1.000000000000000000 ) ) ;
#48 = PERSON_AND_ORGANIZATION ( #77, #70 ) ;
#49 = DIRECTION ( 'NONE',  ( 3.081487911019595319E-31, 1.000000000000000000, 8.673617379884086008E-17 ) ) ;
#50 = PERSON_AND_ORGANIZATION_ROLE ( 'creator' ) ;
#51 = PLANE ( 'NONE',  #14 ) ;
#52 = APPROVAL_ROLE ( '' ) ;
#53 = FACE_OUTER_BOUND ( 'NONE', #37, .T. ) ;
#54 = AXIS2_PLACEMENT_3D ( 'NONE', #118, #93, #49 ) ;
#55 = APPROVAL_PERSON_ORGANIZATION ( #143, #138, #81 ) ;
#56 = CARTESIAN_POINT ( 'NONE',  ( 1.040461438975253740E-13, 0.6249999999999963363, 29.80000000000000071 ) ) ;
#57 = ADVANCED_FACE ( 'NONE', ( #60, #111 ), #199, .T. ) ;
#58 = EDGE_LOOP ( 'NONE', ( #136 ) ) ;
#59 = CARTESIAN_POINT ( 'NONE',  ( 1.259879806782281045E-15, 0.6249999999999963363, 0.3608439182435181913 ) ) ;
#60 = FACE_OUTER_BOUND ( 'NONE', #173, .T. ) ;
#61 = APPROVAL_ROLE ( '' ) ;
#62 = AXIS2_PLACEMENT_3D ( 'NONE', #134, #11, #133 ) ;
#63 = CC_DESIGN_PERSON_AND_ORGANIZATION_ASSIGNMENT ( #165, #184, ( #185 ) ) ;
#64 = CALENDAR_DATE ( 2021, 6, 10 ) ;
#65 = EDGE_LOOP ( 'NONE', ( #198 ) ) ;
#66 = PRODUCT ( '53598', '53598', '', ( #41 ) ) ;
#67 = PERSON_AND_ORGANIZATION ( #77, #70 ) ;
#68 = FACE_OUTER_BOUND ( 'NONE', #125, .T. ) ;
#69 = APPROVAL_DATE_TIME ( #8, #31 ) ;
#70 = ORGANIZATION ( 'UNSPECIFIED', 'UNSPECIFIED', '' ) ;
#71 = APPLICATION_CONTEXT ( 'configuration controlled 3d designs of mechanical parts and assemblies' ) ;
#72 = APPROVAL_STATUS ( 'not_yet_approved' ) ;
#73 = MANIFOLD_SOLID_BREP ( 'Corps-Déplacer/Copier1[1]', #104 ) ;
#74 = AXIS2_PLACEMENT_3D ( 'NONE', #155, #13, #12 ) ;
#75 = APPROVAL_PERSON_ORGANIZATION ( #39, #31, #52 ) ;
#76 = DIRECTION ( 'NONE',  ( 0.0000000000000000000, 1.000000000000000000, 0.0000000000000000000 ) ) ;
#77 = PERSON ( 'UNSPECIFIED', 'UNSPECIFIED', 'UNSPECIFIED', ('UNSPECIFIED'), ('UNSPECIFIED'), ('UNSPECIFIED') ) ;
#78 = VERTEX_POINT ( 'NONE', #107 ) ;
#79 = ADVANCED_FACE ( 'NONE', ( #201, #123 ), #44, .T. ) ;
#80 = DIRECTION ( 'NONE',  ( 0.0000000000000000000, 1.000000000000000000, 0.0000000000000000000 ) ) ;
#81 = APPROVAL_ROLE ( '' ) ;
#82 = CALENDAR_DATE ( 2021, 6, 10 ) ;
#83 = ORIENTED_EDGE ( 'NONE', *, *, #27, .F. ) ;
#84 = CONICAL_SURFACE ( 'NONE', #117, 0.6249999999999963363, 1.047197551196592746 ) ;
#85 = CARTESIAN_POINT ( 'NONE',  ( 1.259879806782280848E-15, -4.419063494687136386E-17, 0.3608439182435181358 ) ) ;
#86 = DIRECTION ( 'NONE',  ( 3.491481338843133355E-15, -1.224646799147353207E-16, 1.000000000000000000 ) ) ;
#87 = CARTESIAN_POINT ( 'NONE',  ( 1.047444401652940007E-13, -3.673940397442059178E-15, 30.00000000000000000 ) ) ;
#88 = CC_DESIGN_APPROVAL ( #138, ( #185 ) ) ;
#89 =( LENGTH_UNIT ( ) NAMED_UNIT ( * ) SI_UNIT ( .MILLI., .METRE. ) );
#90 = CIRCLE ( 'NONE', #54, 0.6249999999999963363 ) ;
#91 = EDGE_LOOP ( 'NONE', ( #186 ) ) ;
#92 = CARTESIAN_POINT ( 'NONE',  ( 1.040461438975253740E-13, -3.649447461459112464E-15, 29.80000000000000071 ) ) ;
#93 = DIRECTION ( 'NONE',  ( -3.491481338843133355E-15, 1.224646799147353207E-16, -1.000000000000000000 ) ) ;
#94 = AXIS2_PLACEMENT_3D ( 'NONE', #87, #183, #146 ) ;
#95 = LOCAL_TIME ( 11, 22, 56.00000000000000000, #144 ) ;
#96 = CALENDAR_DATE ( 2021, 6, 10 ) ;
#97 = DIRECTION ( 'NONE',  ( 4.275831445896958607E-31, 1.000000000000000000, 1.224646799147352961E-16 ) ) ;
#98 = PERSON_AND_ORGANIZATION ( #77, #70 ) ;
#99 = ORIENTED_EDGE ( 'NONE', *, *, #203, .F. ) ;
#100 = COORDINATED_UNIVERSAL_TIME_OFFSET ( 1, 0, .AHEAD. ) ;
#101 = COORDINATED_UNIVERSAL_TIME_OFFSET ( 1, 0, .AHEAD. ) ;
#102 = AXIS2_PLACEMENT_3D ( 'NONE', #156, #106, #174 ) ;
#103 = CC_DESIGN_PERSON_AND_ORGANIZATION_ASSIGNMENT ( #98, #114, ( #185 ) ) ;
#104 = CLOSED_SHELL ( 'NONE', ( #142, #187, #57, #181 ) ) ;
#105 = PERSON_AND_ORGANIZATION_ROLE ( 'design_owner' ) ;
#106 = DIRECTION ( 'NONE',  ( 0.0000000000000000000, 0.0000000000000000000, 1.000000000000000000 ) ) ;
#107 = CARTESIAN_POINT ( 'NONE',  ( 1.047444401652940007E-13, 0.4249999999999963252, 30.00000000000000000 ) ) ;
#108 = AXIS2_PLACEMENT_3D ( 'NONE', #43, #202, #124 ) ;
#109 = VERTEX_POINT ( 'NONE', #59 ) ;
#110 = DATE_AND_TIME ( #96, #141 ) ;
#111 = FACE_BOUND ( 'NONE', #151, .T. ) ;
#112 = DATE_TIME_ROLE ( 'creation_date' ) ;
#113 = DIRECTION ( 'NONE',  ( 3.491481338843133355E-15, -1.224646799147353207E-16, 1.000000000000000000 ) ) ;
#114 = PERSON_AND_ORGANIZATION_ROLE ( 'creator' ) ;
#115 = CYLINDRICAL_SURFACE ( 'NONE', #108, 0.6249999999999985567 ) ;
#116 = DATE_TIME_ROLE ( 'classification_date' ) ;
#117 = AXIS2_PLACEMENT_3D ( 'NONE', #85, #113, #25 ) ;
#118 = CARTESIAN_POINT ( 'NONE',  ( 1.259879806782280848E-15, -4.419063494687136386E-17, 0.3608439182435181358 ) ) ;
#119 = PLANE ( 'NONE',  #32 ) ;
#120 = APPROVAL_PERSON_ORGANIZATION ( #161, #152, #61 ) ;
#121 = PRODUCT_DEFINITION_SHAPE ( 'NONE', 'NONE',  #163 ) ;
#122 = EDGE_LOOP ( 'NONE', ( #99 ) ) ;
#123 = FACE_OUTER_BOUND ( 'NONE', #42, .T. ) ;
#124 = DIRECTION ( 'NONE',  ( 4.275831445896958607E-31, 1.000000000000000000, 1.224646799147353207E-16 ) ) ;
#125 = EDGE_LOOP ( 'NONE', ( #178 ) ) ;
#126 = ADVANCED_BREP_SHAPE_REPRESENTATION ( '53598', ( #73, #139, #102 ), #26 ) ;
#127 = APPROVAL_DATE_TIME ( #110, #152 ) ;
#128 = AXIS2_PLACEMENT_3D ( 'NONE', #33, #10, #97 ) ;
#129 = CARTESIAN_POINT ( 'NONE',  ( 1.047444401652940007E-13, 3.186989538156391994E-33, 30.00000000000000000 ) ) ;
#130 = PERSON_AND_ORGANIZATION_ROLE ( 'classification_officer' ) ;
#131 = DATE_AND_TIME ( #149, #169 ) ;
#132 = SHAPE_DEFINITION_REPRESENTATION ( #121, #126 ) ;
#133 = DIRECTION ( 'NONE',  ( 0.0000000000000000000, 1.000000000000000000, 0.0000000000000000000 ) ) ;
#134 = CARTESIAN_POINT ( 'NONE',  ( 2.793185071074506684E-14, -9.797174393178825657E-16, 8.000000000000000000 ) ) ;
#135 = CC_DESIGN_PERSON_AND_ORGANIZATION_ASSIGNMENT ( #48, #50, ( #163 ) ) ;
#136 = ORIENTED_EDGE ( 'NONE', *, *, #24, .F. ) ;
#137 = PERSON_AND_ORGANIZATION ( #77, #70 ) ;
#138 = APPROVAL ( #34, 'UNSPECIFIED' ) ;
#139 = MANIFOLD_SOLID_BREP ( 'Corps-Déplacer/Copier1[2]', #194 ) ;
#140 = APPLICATION_PROTOCOL_DEFINITION ( 'international standard', 'config_control_design', 1994, #168 ) ;
#141 = LOCAL_TIME ( 11, 22, 56.00000000000000000, #21 ) ;
#142 = ADVANCED_FACE ( 'NONE', ( #193 ), #51, .F. ) ;
#143 = PERSON_AND_ORGANIZATION ( #77, #70 ) ;
#144 = COORDINATED_UNIVERSAL_TIME_OFFSET ( 1, 0, .AHEAD. ) ;
#145 = DIRECTION ( 'NONE',  ( 4.275831445896958607E-31, 1.000000000000000000, 1.224646799147353207E-16 ) ) ;
#146 = DIRECTION ( 'NONE',  ( 0.0000000000000000000, 1.000000000000000000, 0.0000000000000000000 ) ) ;
#147 = EDGE_CURVE ( 'NONE', #189, #189, #154, .T. ) ;
#148 = CC_DESIGN_APPROVAL ( #152, ( #163 ) ) ;
#149 = CALENDAR_DATE ( 2021, 6, 10 ) ;
#150 = CARTESIAN_POINT ( 'NONE',  ( 2.793185071074506684E-14, 4.686749320818270129E-33, 8.000000000000000000 ) ) ;
#151 = EDGE_LOOP ( 'NONE', ( #191 ) ) ;
#152 = APPROVAL ( #159, 'UNSPECIFIED' ) ;
#153 = CARTESIAN_POINT ( 'NONE',  ( 2.793185071074506684E-14, 0.6249999999999963363, 8.000000000000000000 ) ) ;
#154 = CIRCLE ( 'NONE', #62, 0.6249999999999973355 ) ;
#155 = CARTESIAN_POINT ( 'NONE',  ( 2.793185071074506684E-14, -9.797174393178825657E-16, 8.000000000000000000 ) ) ;
#156 = CARTESIAN_POINT ( 'NONE',  ( 0.0000000000000000000, 0.0000000000000000000, 0.0000000000000000000 ) ) ;
#157 = APPLICATION_PROTOCOL_DEFINITION ( 'international standard', 'config_control_design', 1994, #71 ) ;
#158 = LOCAL_TIME ( 11, 22, 56.00000000000000000, #160 ) ;
#159 = APPROVAL_STATUS ( 'not_yet_approved' ) ;
#160 = COORDINATED_UNIVERSAL_TIME_OFFSET ( 1, 0, .AHEAD. ) ;
#161 = PERSON_AND_ORGANIZATION ( #77, #70 ) ;
#162 = CARTESIAN_POINT ( 'NONE',  ( 2.793185071074506684E-14, 4.686749320818270129E-33, 8.000000000000000000 ) ) ;
#163 = PRODUCT_DEFINITION ( 'UNKNOWN', '', #185, #164 ) ;
#164 = DESIGN_CONTEXT ( 'detailed design', #71, 'design' ) ;
#165 = PERSON_AND_ORGANIZATION ( #77, #70 ) ;
#166 = CIRCLE ( 'NONE', #74, 0.6249999999999973355 ) ;
#167 = DIRECTION ( 'NONE',  ( 3.491481338843133355E-15, -1.224646799147353207E-16, 1.000000000000000000 ) ) ;
#168 = APPLICATION_CONTEXT ( 'configuration controlled 3d designs of mechanical parts and assemblies' ) ;
#169 = LOCAL_TIME ( 11, 22, 56.00000000000000000, #100 ) ;
#170 = ADVANCED_FACE ( 'NONE', ( #197 ), #84, .T. ) ;
#171 = VERTEX_POINT ( 'NONE', #153 ) ;
#172 = CC_DESIGN_PERSON_AND_ORGANIZATION_ASSIGNMENT ( #137, #105, ( #66 ) ) ;
#173 = EDGE_LOOP ( 'NONE', ( #83 ) ) ;
#174 = DIRECTION ( 'NONE',  ( 1.000000000000000000, 0.0000000000000000000, 0.0000000000000000000 ) ) ;
#175 = CARTESIAN_POINT ( 'NONE',  ( 2.793185071074506684E-14, 0.6249999999999963363, 8.000000000000000000 ) ) ;
#176 = AXIS2_PLACEMENT_3D ( 'NONE', #129, #192, #145 ) ;
#177 = ADVANCED_FACE ( 'NONE', ( #53 ), #119, .T. ) ;
#178 = ORIENTED_EDGE ( 'NONE', *, *, #27, .T. ) ;
#179 = SECURITY_CLASSIFICATION ( '', '', #23 ) ;
#180 = UNCERTAINTY_MEASURE_WITH_UNIT (LENGTH_MEASURE( 1.000000000000000082E-05 ), #89, 'distance_accuracy_value', 'NONE');
#181 = ADVANCED_FACE ( 'NONE', ( #20 ), #1, .F. ) ;
#182 = DATE_AND_TIME ( #64, #95 ) ;
#183 = DIRECTION ( 'NONE',  ( -3.491481338843133355E-15, 1.224646799147353207E-16, -1.000000000000000000 ) ) ;
#184 = PERSON_AND_ORGANIZATION_ROLE ( 'design_supplier' ) ;
#185 = PRODUCT_DEFINITION_FORMATION_WITH_SPECIFIED_SOURCE ( 'ANY', '', #66, .NOT_KNOWN. ) ;
#186 = ORIENTED_EDGE ( 'NONE', *, *, #18, .T. ) ;
#187 = ADVANCED_FACE ( 'NONE', ( #3, #68 ), #115, .T. ) ;
#188 = CC_DESIGN_APPROVAL ( #31, ( #179 ) ) ;
#189 = VERTEX_POINT ( 'NONE', #175 ) ;
#190 = DATE_AND_TIME ( #82, #158 ) ;
#191 = ORIENTED_EDGE ( 'NONE', *, *, #24, .T. ) ;
#192 = DIRECTION ( 'NONE',  ( -3.491481338843133355E-15, 1.224646799147353207E-16, -1.000000000000000000 ) ) ;
#193 = FACE_OUTER_BOUND ( 'NONE', #9, .T. ) ;
#194 = CLOSED_SHELL ( 'NONE', ( #170, #79, #177 ) ) ;
#195 = CC_DESIGN_DATE_AND_TIME_ASSIGNMENT ( #131, #116, ( #179 ) ) ;
#196 = PRODUCT_RELATED_PRODUCT_CATEGORY ( 'detail', '', ( #66 ) ) ;
#197 = FACE_OUTER_BOUND ( 'NONE', #91, .T. ) ;
#198 = ORIENTED_EDGE ( 'NONE', *, *, #18, .F. ) ;
#199 = CONICAL_SURFACE ( 'NONE', #45, 0.4250000000000000444, 0.7853981633974512766 ) ;
#200 = VERTEX_POINT ( 'NONE', #56 ) ;
#201 = FACE_OUTER_BOUND ( 'NONE', #65, .T. ) ;
#202 = DIRECTION ( 'NONE',  ( -3.491481338843133355E-15, 1.224646799147353207E-16, -1.000000000000000000 ) ) ;
#203 = EDGE_CURVE ( 'NONE', #171, #171, #166, .T. ) ;
ENDSEC;
END-ISO-10303-21;
