ISO-10303-21;
HEADER;
FILE_DESCRIPTION (( 'STEP AP203' ),
    '1' );
FILE_NAME ('53597.step',
    '2021-10-06T09:22:56',
    ( '' ),
    ( '' ),
    'SwSTEP 2.0',
    'SolidWorks 2019',
    '' );
FILE_SCHEMA (( 'CONFIG_CONTROL_DESIGN' ));
ENDSEC;

DATA;
#1 = FACE_OUTER_BOUND ( 'NONE', #155, .T. ) ;
#2 = CC_DESIGN_PERSON_AND_ORGANIZATION_ASSIGNMENT ( #45, #113, ( #73 ) ) ;
#3 = CIRCLE ( 'NONE', #127, 0.3999999999999999667 ) ;
#4 = DIRECTION ( 'NONE',  ( 3.491481338843133355E-15, -1.224646799147353207E-16, 1.000000000000000000 ) ) ;
#5 = SECURITY_CLASSIFICATION ( '', '', #30 ) ;
#6 = ADVANCED_FACE ( 'NONE', ( #31, #63 ), #7, .T. ) ;
#7 = CYLINDRICAL_SURFACE ( 'NONE', #150, 0.5999999999999967581 ) ;
#8 = MANIFOLD_SOLID_BREP ( 'Corps-Déplacer/Copier1[2]', #164 ) ;
#9 = DATE_AND_TIME ( #156, #72 ) ;
#10 = MANIFOLD_SOLID_BREP ( 'Corps-Déplacer/Copier1[1]', #71 ) ;
#11 = APPROVAL_ROLE ( '' ) ;
#12 = DATE_AND_TIME ( #111, #26 ) ;
#13 = DIRECTION ( 'NONE',  ( -4.275831445896958607E-31, -1.000000000000000000, -1.224646799147353207E-16 ) ) ;
#14 = ORIENTED_EDGE ( 'NONE', *, *, #92, .F. ) ;
#15 = ORIENTED_EDGE ( 'NONE', *, *, #117, .F. ) ;
#16 = CC_DESIGN_APPROVAL ( #90, ( #5 ) ) ;
#17 = CARTESIAN_POINT ( 'NONE',  ( 0.0000000000000000000, 0.0000000000000000000, 0.0000000000000000000 ) ) ;
#18 = ADVANCED_FACE ( 'NONE', ( #192 ), #129, .T. ) ;
#19 = AXIS2_PLACEMENT_3D ( 'NONE', #23, #88, #87 ) ;
#20 = CARTESIAN_POINT ( 'NONE',  ( 1.209484614510989503E-15, 0.5999999999999963141, 0.3464101615137774037 ) ) ;
#21 = ADVANCED_FACE ( 'NONE', ( #97 ), #201, .F. ) ;
#22 = DIRECTION ( 'NONE',  ( 3.209883240645412940E-31, 1.000000000000000000, 9.035018104045926161E-17 ) ) ;
#23 = CARTESIAN_POINT ( 'NONE',  ( 2.793185071074506684E-14, 4.499279347985537244E-33, 8.000000000000000000 ) ) ;
#24 = PERSON_AND_ORGANIZATION_ROLE ( 'design_supplier' ) ;
#25 = APPROVAL_STATUS ( 'not_yet_approved' ) ;
#26 = LOCAL_TIME ( 11, 22, 55.00000000000000000, #123 ) ;
#27 = COORDINATED_UNIVERSAL_TIME_OFFSET ( 1, 0, .AHEAD. ) ;
#28 = EDGE_LOOP ( 'NONE', ( #197 ) ) ;
#29 = EDGE_LOOP ( 'NONE', ( #55 ) ) ;
#30 = SECURITY_CLASSIFICATION_LEVEL ( 'unclassified' ) ;
#31 = FACE_OUTER_BOUND ( 'NONE', #162, .T. ) ;
#32 = LOCAL_TIME ( 11, 22, 55.00000000000000000, #139 ) ;
#33 = DIRECTION ( 'NONE',  ( 1.000000000000000000, 0.0000000000000000000, 0.0000000000000000000 ) ) ;
#34 = DIRECTION ( 'NONE',  ( 0.0000000000000000000, 1.000000000000000000, 0.0000000000000000000 ) ) ;
#35 = AXIS2_PLACEMENT_3D ( 'NONE', #114, #76, #83 ) ;
#36 = ORIENTED_EDGE ( 'NONE', *, *, #92, .T. ) ;
#37 = DIRECTION ( 'NONE',  ( -3.491481338843133355E-15, 1.224646799147353207E-16, -1.000000000000000000 ) ) ;
#38 = AXIS2_PLACEMENT_3D ( 'NONE', #85, #145, #34 ) ;
#39 = APPROVAL_STATUS ( 'not_yet_approved' ) ;
#40 = DATE_TIME_ROLE ( 'creation_date' ) ;
#41 = CALENDAR_DATE ( 2021, 6, 10 ) ;
#42 = APPROVAL_PERSON_ORGANIZATION ( #189, #77, #80 ) ;
#43 = LOCAL_TIME ( 11, 22, 55.00000000000000000, #181 ) ;
#44 = ORIENTED_EDGE ( 'NONE', *, *, #118, .F. ) ;
#45 = PERSON_AND_ORGANIZATION ( #59, #168 ) ;
#46 = FACE_OUTER_BOUND ( 'NONE', #187, .T. ) ;
#47 = DIRECTION ( 'NONE',  ( 4.275831445896958607E-31, 1.000000000000000000, 1.224646799147353207E-16 ) ) ;
#48 = APPLICATION_CONTEXT ( 'configuration controlled 3d designs of mechanical parts and assemblies' ) ;
#49 =( NAMED_UNIT ( * ) SI_UNIT ( $, .STERADIAN. ) SOLID_ANGLE_UNIT ( ) );
#50 = FACE_OUTER_BOUND ( 'NONE', #174, .T. ) ;
#51 = CC_DESIGN_PERSON_AND_ORGANIZATION_ASSIGNMENT ( #108, #24, ( #110 ) ) ;
#52 = APPROVAL ( #25, 'UNSPECIFIED' ) ;
#53 = AXIS2_PLACEMENT_3D ( 'NONE', #17, #194, #203 ) ;
#54 = AXIS2_PLACEMENT_3D ( 'NONE', #82, #200, #81 ) ;
#55 = ORIENTED_EDGE ( 'NONE', *, *, #117, .T. ) ;
#56 = ORIENTED_EDGE ( 'NONE', *, *, #79, .T. ) ;
#57 = PERSON_AND_ORGANIZATION ( #59, #168 ) ;
#58 = PERSON_AND_ORGANIZATION ( #59, #168 ) ;
#59 = PERSON ( 'UNSPECIFIED', 'UNSPECIFIED', 'UNSPECIFIED', ('UNSPECIFIED'), ('UNSPECIFIED'), ('UNSPECIFIED') ) ;
#60 = PLANE ( 'NONE',  #159 ) ;
#61 = PRODUCT_RELATED_PRODUCT_CATEGORY ( 'detail', '', ( #73 ) ) ;
#62 = CC_DESIGN_SECURITY_CLASSIFICATION ( #5, ( #110 ) ) ;
#63 = FACE_OUTER_BOUND ( 'NONE', #29, .T. ) ;
#64 = ORIENTED_EDGE ( 'NONE', *, *, #160, .T. ) ;
#65 = VERTEX_POINT ( 'NONE', #68 ) ;
#66 =( LENGTH_UNIT ( ) NAMED_UNIT ( * ) SI_UNIT ( .MILLI., .METRE. ) );
#67 = CONICAL_SURFACE ( 'NONE', #35, 0.5999999999999963141, 1.047197551196592746 ) ;
#68 = CARTESIAN_POINT ( 'NONE',  ( 2.793185071074506684E-14, 0.5999999999999963141, 8.000000000000000000 ) ) ;
#69 = APPLICATION_PROTOCOL_DEFINITION ( 'international standard', 'config_control_design', 1994, #48 ) ;
#70 = VERTEX_POINT ( 'NONE', #176 ) ;
#71 = CLOSED_SHELL ( 'NONE', ( #21, #185, #196, #106 ) ) ;
#72 = LOCAL_TIME ( 11, 22, 55.00000000000000000, #27 ) ;
#73 = PRODUCT ( '53597', '53597', '', ( #132 ) ) ;
#74 = DIRECTION ( 'NONE',  ( -3.491481338843133355E-15, 1.224646799147353207E-16, -1.000000000000000000 ) ) ;
#75 = AXIS2_PLACEMENT_3D ( 'NONE', #195, #37, #141 ) ;
#76 = DIRECTION ( 'NONE',  ( 3.491481338843133355E-15, -1.224646799147353207E-16, 1.000000000000000000 ) ) ;
#77 = APPROVAL ( #173, 'UNSPECIFIED' ) ;
#78 = APPROVAL_DATE_TIME ( #9, #90 ) ;
#79 = EDGE_CURVE ( 'NONE', #65, #65, #146, .T. ) ;
#80 = APPROVAL_ROLE ( '' ) ;
#81 = DIRECTION ( 'NONE',  ( 0.0000000000000000000, 1.000000000000000000, 0.0000000000000000000 ) ) ;
#82 = CARTESIAN_POINT ( 'NONE',  ( 1.040461438975253740E-13, -3.649447461459112464E-15, 29.80000000000000071 ) ) ;
#83 = DIRECTION ( 'NONE',  ( -3.209883240645412940E-31, -1.000000000000000000, -9.035018104045926161E-17 ) ) ;
#84 = CC_DESIGN_APPROVAL ( #52, ( #103 ) ) ;
#85 = CARTESIAN_POINT ( 'NONE',  ( 1.047444401652940007E-13, -3.673940397442059178E-15, 30.00000000000000000 ) ) ;
#86 = VERTEX_POINT ( 'NONE', #161 ) ;
#87 = DIRECTION ( 'NONE',  ( -4.275831445896958607E-31, -1.000000000000000000, -1.224646799147353207E-16 ) ) ;
#88 = DIRECTION ( 'NONE',  ( 3.491481338843133355E-15, -1.224646799147353207E-16, 1.000000000000000000 ) ) ;
#89 = AXIS2_PLACEMENT_3D ( 'NONE', #149, #4, #13 ) ;
#90 = APPROVAL ( #39, 'UNSPECIFIED' ) ;
#91 = CALENDAR_DATE ( 2021, 6, 10 ) ;
#92 = EDGE_CURVE ( 'NONE', #175, #175, #122, .T. ) ;
#93 = CIRCLE ( 'NONE', #169, 0.5999999999999963141 ) ;
#94 = DATE_AND_TIME ( #124, #32 ) ;
#95 = DIRECTION ( 'NONE',  ( 0.0000000000000000000, 1.000000000000000000, 0.0000000000000000000 ) ) ;
#96 = DATE_TIME_ROLE ( 'classification_date' ) ;
#97 = FACE_OUTER_BOUND ( 'NONE', #98, .T. ) ;
#98 = EDGE_LOOP ( 'NONE', ( #56 ) ) ;
#99 = PERSON_AND_ORGANIZATION_ROLE ( 'classification_officer' ) ;
#100 = CARTESIAN_POINT ( 'NONE',  ( 1.047444401652940007E-13, -3.673940397442059178E-15, 30.00000000000000000 ) ) ;
#101 = CARTESIAN_POINT ( 'NONE',  ( 0.0000000000000000000, 0.0000000000000000000, 0.0000000000000000000 ) ) ;
#102 =( NAMED_UNIT ( * ) PLANE_ANGLE_UNIT ( ) SI_UNIT ( $, .RADIAN. ) );
#103 = PRODUCT_DEFINITION ( 'UNKNOWN', '', #110, #183 ) ;
#104 = CC_DESIGN_APPROVAL ( #77, ( #110 ) ) ;
#105 = DIRECTION ( 'NONE',  ( 0.0000000000000000000, 1.000000000000000000, 0.0000000000000000000 ) ) ;
#106 = ADVANCED_FACE ( 'NONE', ( #140 ), #60, .F. ) ;
#107 = DIRECTION ( 'NONE',  ( -3.491481338843133355E-15, 1.224646799147353207E-16, -1.000000000000000000 ) ) ;
#108 = PERSON_AND_ORGANIZATION ( #59, #168 ) ;
#109 = APPLICATION_PROTOCOL_DEFINITION ( 'international standard', 'config_control_design', 1994, #130 ) ;
#110 = PRODUCT_DEFINITION_FORMATION_WITH_SPECIFIED_SOURCE ( 'ANY', '', #73, .NOT_KNOWN. ) ;
#111 = CALENDAR_DATE ( 2021, 6, 10 ) ;
#112 = CARTESIAN_POINT ( 'NONE',  ( 0.0000000000000000000, 0.0000000000000000000, 0.0000000000000000000 ) ) ;
#113 = PERSON_AND_ORGANIZATION_ROLE ( 'design_owner' ) ;
#114 = CARTESIAN_POINT ( 'NONE',  ( 1.209484614510989306E-15, -4.242300954899650586E-17, 0.3464101615137773482 ) ) ;
#115 = VERTEX_POINT ( 'NONE', #20 ) ;
#116 = CC_DESIGN_PERSON_AND_ORGANIZATION_ASSIGNMENT ( #58, #125, ( #110 ) ) ;
#117 = EDGE_CURVE ( 'NONE', #70, #70, #182, .T. ) ;
#118 = EDGE_CURVE ( 'NONE', #86, #86, #3, .T. ) ;
#119 = CARTESIAN_POINT ( 'NONE',  ( 1.209484614510989306E-15, -4.242300954899650586E-17, 0.3464101615137773482 ) ) ;
#120 = ORIENTED_EDGE ( 'NONE', *, *, #118, .T. ) ;
#121 = APPROVAL_DATE_TIME ( #12, #52 ) ;
#122 = CIRCLE ( 'NONE', #54, 0.5999999999999999778 ) ;
#123 = COORDINATED_UNIVERSAL_TIME_OFFSET ( 1, 0, .AHEAD. ) ;
#124 = CALENDAR_DATE ( 2021, 6, 10 ) ;
#125 = PERSON_AND_ORGANIZATION_ROLE ( 'creator' ) ;
#126 = CARTESIAN_POINT ( 'NONE',  ( 1.047444401652940007E-13, 2.999519565323659793E-33, 30.00000000000000000 ) ) ;
#127 = AXIS2_PLACEMENT_3D ( 'NONE', #100, #190, #105 ) ;
#128 = APPROVAL_ROLE ( '' ) ;
#129 = PLANE ( 'NONE',  #19 ) ;
#130 = APPLICATION_CONTEXT ( 'configuration controlled 3d designs of mechanical parts and assemblies' ) ;
#131 = CARTESIAN_POINT ( 'NONE',  ( 1.040461438975253740E-13, 0.5999999999999963141, 29.80000000000000071 ) ) ;
#132 = MECHANICAL_CONTEXT ( 'NONE', #48, 'mechanical' ) ;
#133 = AXIS2_PLACEMENT_3D ( 'NONE', #101, #158, #33 ) ;
#134 = CC_DESIGN_DATE_AND_TIME_ASSIGNMENT ( #171, #96, ( #5 ) ) ;
#135 =( GEOMETRIC_REPRESENTATION_CONTEXT ( 3 ) GLOBAL_UNCERTAINTY_ASSIGNED_CONTEXT ( ( #152 ) ) GLOBAL_UNIT_ASSIGNED_CONTEXT ( ( #66, #102, #49 ) ) REPRESENTATION_CONTEXT ( 'NONE', 'WORKASPACE' ) );
#136 = DIRECTION ( 'NONE',  ( 4.275831445896958607E-31, 1.000000000000000000, 1.224646799147353207E-16 ) ) ;
#137 = FACE_OUTER_BOUND ( 'NONE', #28, .T. ) ;
#138 = COORDINATED_UNIVERSAL_TIME_OFFSET ( 1, 0, .AHEAD. ) ;
#139 = COORDINATED_UNIVERSAL_TIME_OFFSET ( 1, 0, .AHEAD. ) ;
#140 = FACE_OUTER_BOUND ( 'NONE', #179, .T. ) ;
#141 = DIRECTION ( 'NONE',  ( 0.0000000000000000000, 1.000000000000000000, 0.0000000000000000000 ) ) ;
#142 = APPROVAL_PERSON_ORGANIZATION ( #57, #52, #128 ) ;
#143 = APPROVAL_PERSON_ORGANIZATION ( #151, #90, #11 ) ;
#144 = EDGE_LOOP ( 'NONE', ( #15 ) ) ;
#145 = DIRECTION ( 'NONE',  ( -3.491481338843133355E-15, 1.224646799147353207E-16, -1.000000000000000000 ) ) ;
#146 = CIRCLE ( 'NONE', #154, 0.5999999999999972022 ) ;
#147 = PRODUCT_DEFINITION_SHAPE ( 'NONE', 'NONE',  #103 ) ;
#148 = CC_DESIGN_PERSON_AND_ORGANIZATION_ASSIGNMENT ( #198, #184, ( #103 ) ) ;
#149 = CARTESIAN_POINT ( 'NONE',  ( 2.793185071074506684E-14, 4.499279347985537244E-33, 8.000000000000000000 ) ) ;
#150 = AXIS2_PLACEMENT_3D ( 'NONE', #112, #74, #47 ) ;
#151 = PERSON_AND_ORGANIZATION ( #59, #168 ) ;
#152 = UNCERTAINTY_MEASURE_WITH_UNIT (LENGTH_MEASURE( 1.000000000000000082E-05 ), #66, 'distance_accuracy_value', 'NONE');
#153 = SHAPE_DEFINITION_REPRESENTATION ( #147, #191 ) ;
#154 = AXIS2_PLACEMENT_3D ( 'NONE', #157, #107, #95 ) ;
#155 = EDGE_LOOP ( 'NONE', ( #14 ) ) ;
#156 = CALENDAR_DATE ( 2021, 6, 10 ) ;
#157 = CARTESIAN_POINT ( 'NONE',  ( 2.793185071074506684E-14, -9.797174393178825657E-16, 8.000000000000000000 ) ) ;
#158 = DIRECTION ( 'NONE',  ( 0.0000000000000000000, 0.0000000000000000000, 1.000000000000000000 ) ) ;
#159 = AXIS2_PLACEMENT_3D ( 'NONE', #126, #172, #136 ) ;
#160 = EDGE_CURVE ( 'NONE', #115, #115, #93, .T. ) ;
#161 = CARTESIAN_POINT ( 'NONE',  ( 1.047444401652940007E-13, 0.3999999999999963030, 30.00000000000000000 ) ) ;
#162 = EDGE_LOOP ( 'NONE', ( #180 ) ) ;
#163 = DIRECTION ( 'NONE',  ( -3.491481338843133355E-15, 1.224646799147353207E-16, -1.000000000000000000 ) ) ;
#164 = CLOSED_SHELL ( 'NONE', ( #166, #6, #18 ) ) ;
#165 = EDGE_LOOP ( 'NONE', ( #120 ) ) ;
#166 = ADVANCED_FACE ( 'NONE', ( #46 ), #67, .T. ) ;
#167 = DATE_AND_TIME ( #91, #188 ) ;
#168 = ORGANIZATION ( 'UNSPECIFIED', 'UNSPECIFIED', '' ) ;
#169 = AXIS2_PLACEMENT_3D ( 'NONE', #119, #163, #22 ) ;
#170 = CC_DESIGN_PERSON_AND_ORGANIZATION_ASSIGNMENT ( #186, #99, ( #5 ) ) ;
#171 = DATE_AND_TIME ( #41, #43 ) ;
#172 = DIRECTION ( 'NONE',  ( -3.491481338843133355E-15, 1.224646799147353207E-16, -1.000000000000000000 ) ) ;
#173 = APPROVAL_STATUS ( 'not_yet_approved' ) ;
#174 = EDGE_LOOP ( 'NONE', ( #36 ) ) ;
#175 = VERTEX_POINT ( 'NONE', #131 ) ;
#176 = CARTESIAN_POINT ( 'NONE',  ( 2.793185071074506684E-14, 0.5999999999999963141, 8.000000000000000000 ) ) ;
#177 = CYLINDRICAL_SURFACE ( 'NONE', #53, 0.5999999999999985345 ) ;
#178 = CONICAL_SURFACE ( 'NONE', #38, 0.3999999999999999667, 0.7853981633974512766 ) ;
#179 = EDGE_LOOP ( 'NONE', ( #44 ) ) ;
#180 = ORIENTED_EDGE ( 'NONE', *, *, #160, .F. ) ;
#181 = COORDINATED_UNIVERSAL_TIME_OFFSET ( 1, 0, .AHEAD. ) ;
#182 = CIRCLE ( 'NONE', #75, 0.5999999999999972022 ) ;
#183 = DESIGN_CONTEXT ( 'detailed design', #130, 'design' ) ;
#184 = PERSON_AND_ORGANIZATION_ROLE ( 'creator' ) ;
#185 = ADVANCED_FACE ( 'NONE', ( #137, #50 ), #177, .T. ) ;
#186 = PERSON_AND_ORGANIZATION ( #59, #168 ) ;
#187 = EDGE_LOOP ( 'NONE', ( #64 ) ) ;
#188 = LOCAL_TIME ( 11, 22, 55.00000000000000000, #138 ) ;
#189 = PERSON_AND_ORGANIZATION ( #59, #168 ) ;
#190 = DIRECTION ( 'NONE',  ( -3.491481338843133355E-15, 1.224646799147353207E-16, -1.000000000000000000 ) ) ;
#191 = ADVANCED_BREP_SHAPE_REPRESENTATION ( '53597', ( #10, #8, #133 ), #135 ) ;
#192 = FACE_OUTER_BOUND ( 'NONE', #144, .T. ) ;
#193 = FACE_BOUND ( 'NONE', #165, .T. ) ;
#194 = DIRECTION ( 'NONE',  ( -3.491481338843133355E-15, 1.224646799147353207E-16, -1.000000000000000000 ) ) ;
#195 = CARTESIAN_POINT ( 'NONE',  ( 2.793185071074506684E-14, -9.797174393178825657E-16, 8.000000000000000000 ) ) ;
#196 = ADVANCED_FACE ( 'NONE', ( #1, #193 ), #178, .T. ) ;
#197 = ORIENTED_EDGE ( 'NONE', *, *, #79, .F. ) ;
#198 = PERSON_AND_ORGANIZATION ( #59, #168 ) ;
#199 = APPROVAL_DATE_TIME ( #167, #77 ) ;
#200 = DIRECTION ( 'NONE',  ( -3.491481338843133355E-15, 1.224646799147353207E-16, -1.000000000000000000 ) ) ;
#201 = PLANE ( 'NONE',  #89 ) ;
#202 = CC_DESIGN_DATE_AND_TIME_ASSIGNMENT ( #94, #40, ( #103 ) ) ;
#203 = DIRECTION ( 'NONE',  ( 4.275831445896959482E-31, 1.000000000000000000, 1.224646799147353207E-16 ) ) ;
ENDSEC;
END-ISO-10303-21;
