ISO-10303-21;
HEADER;
FILE_DESCRIPTION (( 'STEP AP203' ),
    '1' );
FILE_NAME ('53596.step',
    '2021-10-06T09:22:55',
    ( '' ),
    ( '' ),
    'SwSTEP 2.0',
    'SolidWorks 2019',
    '' );
FILE_SCHEMA (( 'CONFIG_CONTROL_DESIGN' ));
ENDSEC;

DATA;
#1 = APPROVAL_ROLE ( '' ) ;
#2 = LOCAL_TIME ( 11, 22, 55.00000000000000000, #128 ) ;
#3 = PRODUCT_RELATED_PRODUCT_CATEGORY ( 'detail', '', ( #161 ) ) ;
#4 = MANIFOLD_SOLID_BREP ( 'Corps-Déplacer/Copier1[2]', #59 ) ;
#5 = PERSON_AND_ORGANIZATION ( #10, #92 ) ;
#6 = AXIS2_PLACEMENT_3D ( 'NONE', #34, #17, #139 ) ;
#7 = ADVANCED_FACE ( 'NONE', ( #95, #138 ), #63, .T. ) ;
#8 = DIRECTION ( 'NONE',  ( -3.491481338843133355E-15, 1.224646799147353207E-16, -1.000000000000000000 ) ) ;
#9 = SHAPE_DEFINITION_REPRESENTATION ( #102, #105 ) ;
#10 = PERSON ( 'UNSPECIFIED', 'UNSPECIFIED', 'UNSPECIFIED', ('UNSPECIFIED'), ('UNSPECIFIED'), ('UNSPECIFIED') ) ;
#11 = EDGE_LOOP ( 'NONE', ( #123 ) ) ;
#12 = AXIS2_PLACEMENT_3D ( 'NONE', #156, #50, #141 ) ;
#13 = EDGE_LOOP ( 'NONE', ( #157 ) ) ;
#14 = DIRECTION ( 'NONE',  ( 3.491481338843133355E-15, -1.224646799147353207E-16, 1.000000000000000000 ) ) ;
#15 = CARTESIAN_POINT ( 'NONE',  ( 1.047444401652940007E-13, -3.673940397442059178E-15, 30.00000000000000000 ) ) ;
#16 = DIRECTION ( 'NONE',  ( 0.0000000000000000000, 1.000000000000000000, 0.0000000000000000000 ) ) ;
#17 = DIRECTION ( 'NONE',  ( -3.491481338843133355E-15, 1.224646799147353207E-16, -1.000000000000000000 ) ) ;
#18 = AXIS2_PLACEMENT_3D ( 'NONE', #143, #172, #195 ) ;
#19 = COORDINATED_UNIVERSAL_TIME_OFFSET ( 1, 0, .AHEAD. ) ;
#20 = DATE_TIME_ROLE ( 'classification_date' ) ;
#21 = APPROVAL_ROLE ( '' ) ;
#22 = AXIS2_PLACEMENT_3D ( 'NONE', #140, #114, #28 ) ;
#23 = COORDINATED_UNIVERSAL_TIME_OFFSET ( 1, 0, .AHEAD. ) ;
#24 = EDGE_CURVE ( 'NONE', #97, #97, #110, .T. ) ;
#25 = CLOSED_SHELL ( 'NONE', ( #117, #7, #109, #94 ) ) ;
#26 = CARTESIAN_POINT ( 'NONE',  ( 2.793185071074506684E-14, 4.311809375152805727E-33, 8.000000000000000000 ) ) ;
#27 = DIRECTION ( 'NONE',  ( -3.491481338843133355E-15, 1.224646799147353207E-16, -1.000000000000000000 ) ) ;
#28 = DIRECTION ( 'NONE',  ( 4.275831445896958607E-31, 1.000000000000000000, 1.224646799147353207E-16 ) ) ;
#29 = AXIS2_PLACEMENT_3D ( 'NONE', #174, #36, #82 ) ;
#30 = FACE_OUTER_BOUND ( 'NONE', #32, .T. ) ;
#31 = APPROVAL_ROLE ( '' ) ;
#32 = EDGE_LOOP ( 'NONE', ( #45 ) ) ;
#33 = CC_DESIGN_SECURITY_CLASSIFICATION ( #89, ( #53 ) ) ;
#34 = CARTESIAN_POINT ( 'NONE',  ( 0.0000000000000000000, 0.0000000000000000000, 0.0000000000000000000 ) ) ;
#35 = DIRECTION ( 'NONE',  ( -3.491481338843133355E-15, 1.224646799147353207E-16, -1.000000000000000000 ) ) ;
#36 = DIRECTION ( 'NONE',  ( -3.491481338843133355E-15, 1.224646799147353207E-16, -1.000000000000000000 ) ) ;
#37 = PERSON_AND_ORGANIZATION_ROLE ( 'creator' ) ;
#38 = PERSON_AND_ORGANIZATION ( #10, #92 ) ;
#39 = DIRECTION ( 'NONE',  ( 1.000000000000000000, 0.0000000000000000000, 0.0000000000000000000 ) ) ;
#40 = CONICAL_SURFACE ( 'NONE', #164, 0.3750000000000000000, 0.7853981633974512766 ) ;
#41 = PERSON_AND_ORGANIZATION ( #10, #92 ) ;
#42 = AXIS2_PLACEMENT_3D ( 'NONE', #136, #27, #186 ) ;
#43 = FACE_OUTER_BOUND ( 'NONE', #11, .T. ) ;
#44 = FACE_BOUND ( 'NONE', #113, .T. ) ;
#45 = ORIENTED_EDGE ( 'NONE', *, *, #191, .T. ) ;
#46 = EDGE_LOOP ( 'NONE', ( #180 ) ) ;
#47 = FACE_OUTER_BOUND ( 'NONE', #111, .T. ) ;
#48 = EDGE_CURVE ( 'NONE', #168, #168, #179, .T. ) ;
#49 = APPROVAL_DATE_TIME ( #198, #153 ) ;
#50 = DIRECTION ( 'NONE',  ( -3.491481338843133355E-15, 1.224646799147353207E-16, -1.000000000000000000 ) ) ;
#51 = VERTEX_POINT ( 'NONE', #150 ) ;
#52 = DATE_AND_TIME ( #177, #149 ) ;
#53 = PRODUCT_DEFINITION_FORMATION_WITH_SPECIFIED_SOURCE ( 'ANY', '', #161, .NOT_KNOWN. ) ;
#54 = DIRECTION ( 'NONE',  ( 0.0000000000000000000, 0.0000000000000000000, 1.000000000000000000 ) ) ;
#55 = CALENDAR_DATE ( 2021, 6, 10 ) ;
#56 = AXIS2_PLACEMENT_3D ( 'NONE', #83, #99, #159 ) ;
#57 = CC_DESIGN_PERSON_AND_ORGANIZATION_ASSIGNMENT ( #38, #131, ( #126 ) ) ;
#58 = ADVANCED_FACE ( 'NONE', ( #160 ), #173, .T. ) ;
#59 = CLOSED_SHELL ( 'NONE', ( #165, #194, #58 ) ) ;
#60 =( NAMED_UNIT ( * ) PLANE_ANGLE_UNIT ( ) SI_UNIT ( $, .RADIAN. ) );
#61 = DIRECTION ( 'NONE',  ( -3.491481338843133355E-15, 1.224646799147353207E-16, -1.000000000000000000 ) ) ;
#62 = CIRCLE ( 'NONE', #106, 0.5749999999999999556 ) ;
#63 = CYLINDRICAL_SURFACE ( 'NONE', #22, 0.5749999999999987343 ) ;
#64 = APPLICATION_PROTOCOL_DEFINITION ( 'international standard', 'config_control_design', 1994, #147 ) ;
#65 = CONICAL_SURFACE ( 'NONE', #18, 0.5749999999999962919, 1.047197551196592746 ) ;
#66 = CARTESIAN_POINT ( 'NONE',  ( 1.040461438975253740E-13, -3.649447461459112464E-15, 29.80000000000000071 ) ) ;
#67 = CARTESIAN_POINT ( 'NONE',  ( 1.040461438975253740E-13, 0.5749999999999962919, 29.80000000000000071 ) ) ;
#68 = PERSON_AND_ORGANIZATION ( #10, #92 ) ;
#69 = DATE_AND_TIME ( #104, #120 ) ;
#70 = APPROVAL_PERSON_ORGANIZATION ( #190, #178, #1 ) ;
#71 = MECHANICAL_CONTEXT ( 'NONE', #147, 'mechanical' ) ;
#72 = APPROVAL_STATUS ( 'not_yet_approved' ) ;
#73 = EDGE_CURVE ( 'NONE', #201, #201, #62, .T. ) ;
#74 = PERSON_AND_ORGANIZATION_ROLE ( 'design_supplier' ) ;
#75 = FACE_OUTER_BOUND ( 'NONE', #79, .T. ) ;
#76 =( NAMED_UNIT ( * ) SI_UNIT ( $, .STERADIAN. ) SOLID_ANGLE_UNIT ( ) );
#77 = DIRECTION ( 'NONE',  ( 0.0000000000000000000, 1.000000000000000000, 0.0000000000000000000 ) ) ;
#78 = CC_DESIGN_PERSON_AND_ORGANIZATION_ASSIGNMENT ( #162, #203, ( #89 ) ) ;
#79 = EDGE_LOOP ( 'NONE', ( #121 ) ) ;
#80 = ORIENTED_EDGE ( 'NONE', *, *, #191, .F. ) ;
#81 = CC_DESIGN_DATE_AND_TIME_ASSIGNMENT ( #103, #20, ( #89 ) ) ;
#82 = DIRECTION ( 'NONE',  ( 3.349443381543040427E-31, 1.000000000000000000, 9.427844978134881830E-17 ) ) ;
#83 = CARTESIAN_POINT ( 'NONE',  ( 2.793185071074506684E-14, 4.311809375152805727E-33, 8.000000000000000000 ) ) ;
#84 = CARTESIAN_POINT ( 'NONE',  ( 1.047444401652940007E-13, 0.3749999999999963363, 30.00000000000000000 ) ) ;
#85 = MANIFOLD_SOLID_BREP ( 'Corps-Déplacer/Copier1[1]', #25 ) ;
#86 = DATE_TIME_ROLE ( 'creation_date' ) ;
#87 = PERSON_AND_ORGANIZATION_ROLE ( 'design_owner' ) ;
#88 = APPROVAL_DATE_TIME ( #52, #93 ) ;
#89 = SECURITY_CLASSIFICATION ( '', '', #192 ) ;
#90 = CARTESIAN_POINT ( 'NONE',  ( 1.159089422239697764E-15, 0.5749999999999962919, 0.3319764047840365051 ) ) ;
#91 = CYLINDRICAL_SURFACE ( 'NONE', #6, 0.5749999999999967359 ) ;
#92 = ORGANIZATION ( 'UNSPECIFIED', 'UNSPECIFIED', '' ) ;
#93 = APPROVAL ( #175, 'UNSPECIFIED' ) ;
#94 = ADVANCED_FACE ( 'NONE', ( #43 ), #108, .F. ) ;
#95 = FACE_OUTER_BOUND ( 'NONE', #181, .T. ) ;
#96 = LOCAL_TIME ( 11, 22, 55.00000000000000000, #23 ) ;
#97 = VERTEX_POINT ( 'NONE', #199 ) ;
#98 = FACE_OUTER_BOUND ( 'NONE', #46, .T. ) ;
#99 = DIRECTION ( 'NONE',  ( 3.491481338843133355E-15, -1.224646799147353207E-16, 1.000000000000000000 ) ) ;
#100 = DIRECTION ( 'NONE',  ( -3.491481338843133355E-15, 1.224646799147353207E-16, -1.000000000000000000 ) ) ;
#101 = CC_DESIGN_APPROVAL ( #93, ( #126 ) ) ;
#102 = PRODUCT_DEFINITION_SHAPE ( 'NONE', 'NONE',  #126 ) ;
#103 = DATE_AND_TIME ( #163, #2 ) ;
#104 = CALENDAR_DATE ( 2021, 6, 10 ) ;
#105 = ADVANCED_BREP_SHAPE_REPRESENTATION ( '53596', ( #85, #4, #176 ), #166 ) ;
#106 = AXIS2_PLACEMENT_3D ( 'NONE', #66, #61, #185 ) ;
#107 = PERSON_AND_ORGANIZATION ( #10, #92 ) ;
#108 = PLANE ( 'NONE',  #12 ) ;
#109 = ADVANCED_FACE ( 'NONE', ( #98, #44 ), #40, .T. ) ;
#110 = CIRCLE ( 'NONE', #184, 0.5749999999999972911 ) ;
#111 = EDGE_LOOP ( 'NONE', ( #155 ) ) ;
#112 = UNCERTAINTY_MEASURE_WITH_UNIT (LENGTH_MEASURE( 1.000000000000000082E-05 ), #193, 'distance_accuracy_value', 'NONE');
#113 = EDGE_LOOP ( 'NONE', ( #170 ) ) ;
#114 = DIRECTION ( 'NONE',  ( -3.491481338843133355E-15, 1.224646799147353207E-16, -1.000000000000000000 ) ) ;
#115 = DIRECTION ( 'NONE',  ( 0.0000000000000000000, 1.000000000000000000, 0.0000000000000000000 ) ) ;
#116 = APPROVAL_STATUS ( 'not_yet_approved' ) ;
#117 = ADVANCED_FACE ( 'NONE', ( #47 ), #183, .F. ) ;
#118 = CC_DESIGN_APPROVAL ( #153, ( #89 ) ) ;
#119 = LOCAL_TIME ( 11, 22, 55.00000000000000000, #122 ) ;
#120 = LOCAL_TIME ( 11, 22, 55.00000000000000000, #19 ) ;
#121 = ORIENTED_EDGE ( 'NONE', *, *, #148, .T. ) ;
#122 = COORDINATED_UNIVERSAL_TIME_OFFSET ( 1, 0, .AHEAD. ) ;
#123 = ORIENTED_EDGE ( 'NONE', *, *, #48, .F. ) ;
#124 = APPROVAL_PERSON_ORGANIZATION ( #41, #93, #21 ) ;
#125 = EDGE_LOOP ( 'NONE', ( #197 ) ) ;
#126 = PRODUCT_DEFINITION ( 'UNKNOWN', '', #53, #154 ) ;
#127 = VERTEX_POINT ( 'NONE', #90 ) ;
#128 = COORDINATED_UNIVERSAL_TIME_OFFSET ( 1, 0, .AHEAD. ) ;
#129 = AXIS2_PLACEMENT_3D ( 'NONE', #26, #14, #169 ) ;
#130 = APPLICATION_PROTOCOL_DEFINITION ( 'international standard', 'config_control_design', 1994, #167 ) ;
#131 = PERSON_AND_ORGANIZATION_ROLE ( 'creator' ) ;
#132 = DATE_AND_TIME ( #55, #96 ) ;
#133 = CIRCLE ( 'NONE', #29, 0.5749999999999962919 ) ;
#134 = AXIS2_PLACEMENT_3D ( 'NONE', #196, #35, #16 ) ;
#135 = FACE_OUTER_BOUND ( 'NONE', #125, .T. ) ;
#136 = CARTESIAN_POINT ( 'NONE',  ( 2.793185071074506684E-14, -9.797174393178825657E-16, 8.000000000000000000 ) ) ;
#137 = CIRCLE ( 'NONE', #42, 0.5749999999999972911 ) ;
#138 = FACE_OUTER_BOUND ( 'NONE', #13, .T. ) ;
#139 = DIRECTION ( 'NONE',  ( 4.275831445896958607E-31, 1.000000000000000000, 1.224646799147353207E-16 ) ) ;
#140 = CARTESIAN_POINT ( 'NONE',  ( 0.0000000000000000000, 0.0000000000000000000, 0.0000000000000000000 ) ) ;
#141 = DIRECTION ( 'NONE',  ( 4.275831445896958607E-31, 1.000000000000000000, 1.224646799147353207E-16 ) ) ;
#142 = CC_DESIGN_APPROVAL ( #178, ( #53 ) ) ;
#143 = CARTESIAN_POINT ( 'NONE',  ( 1.159089422239697567E-15, -4.065538415112162936E-17, 0.3319764047840364496 ) ) ;
#144 = CARTESIAN_POINT ( 'NONE',  ( 0.0000000000000000000, 0.0000000000000000000, 0.0000000000000000000 ) ) ;
#145 = APPROVAL_DATE_TIME ( #132, #178 ) ;
#146 = CC_DESIGN_PERSON_AND_ORGANIZATION_ASSIGNMENT ( #5, #74, ( #53 ) ) ;
#147 = APPLICATION_CONTEXT ( 'configuration controlled 3d designs of mechanical parts and assemblies' ) ;
#148 = EDGE_CURVE ( 'NONE', #127, #127, #133, .T. ) ;
#149 = LOCAL_TIME ( 11, 22, 55.00000000000000000, #188 ) ;
#150 = CARTESIAN_POINT ( 'NONE',  ( 2.793185071074506684E-14, 0.5749999999999962919, 8.000000000000000000 ) ) ;
#151 = CARTESIAN_POINT ( 'NONE',  ( 2.793185071074506684E-14, -9.797174393178825657E-16, 8.000000000000000000 ) ) ;
#152 = CALENDAR_DATE ( 2021, 6, 10 ) ;
#153 = APPROVAL ( #116, 'UNSPECIFIED' ) ;
#154 = DESIGN_CONTEXT ( 'detailed design', #167, 'design' ) ;
#155 = ORIENTED_EDGE ( 'NONE', *, *, #24, .T. ) ;
#156 = CARTESIAN_POINT ( 'NONE',  ( 1.047444401652940007E-13, 2.812049592490927934E-33, 30.00000000000000000 ) ) ;
#157 = ORIENTED_EDGE ( 'NONE', *, *, #73, .T. ) ;
#158 = CC_DESIGN_PERSON_AND_ORGANIZATION_ASSIGNMENT ( #189, #37, ( #53 ) ) ;
#159 = DIRECTION ( 'NONE',  ( -4.275831445896958607E-31, -1.000000000000000000, -1.224646799147353207E-16 ) ) ;
#160 = FACE_OUTER_BOUND ( 'NONE', #171, .T. ) ;
#161 = PRODUCT ( '53596', '53596', '', ( #71 ) ) ;
#162 = PERSON_AND_ORGANIZATION ( #10, #92 ) ;
#163 = CALENDAR_DATE ( 2021, 6, 10 ) ;
#164 = AXIS2_PLACEMENT_3D ( 'NONE', #15, #100, #115 ) ;
#165 = ADVANCED_FACE ( 'NONE', ( #75 ), #65, .T. ) ;
#166 =( GEOMETRIC_REPRESENTATION_CONTEXT ( 3 ) GLOBAL_UNCERTAINTY_ASSIGNED_CONTEXT ( ( #112 ) ) GLOBAL_UNIT_ASSIGNED_CONTEXT ( ( #193, #60, #76 ) ) REPRESENTATION_CONTEXT ( 'NONE', 'WORKASPACE' ) );
#167 = APPLICATION_CONTEXT ( 'configuration controlled 3d designs of mechanical parts and assemblies' ) ;
#168 = VERTEX_POINT ( 'NONE', #84 ) ;
#169 = DIRECTION ( 'NONE',  ( -4.275831445896958607E-31, -1.000000000000000000, -1.224646799147353207E-16 ) ) ;
#170 = ORIENTED_EDGE ( 'NONE', *, *, #48, .T. ) ;
#171 = EDGE_LOOP ( 'NONE', ( #80 ) ) ;
#172 = DIRECTION ( 'NONE',  ( 3.491481338843133355E-15, -1.224646799147353207E-16, 1.000000000000000000 ) ) ;
#173 = PLANE ( 'NONE',  #56 ) ;
#174 = CARTESIAN_POINT ( 'NONE',  ( 1.159089422239697567E-15, -4.065538415112162936E-17, 0.3319764047840364496 ) ) ;
#175 = APPROVAL_STATUS ( 'not_yet_approved' ) ;
#176 = AXIS2_PLACEMENT_3D ( 'NONE', #144, #54, #39 ) ;
#177 = CALENDAR_DATE ( 2021, 6, 10 ) ;
#178 = APPROVAL ( #72, 'UNSPECIFIED' ) ;
#179 = CIRCLE ( 'NONE', #134, 0.3750000000000000000 ) ;
#180 = ORIENTED_EDGE ( 'NONE', *, *, #73, .F. ) ;
#181 = EDGE_LOOP ( 'NONE', ( #182 ) ) ;
#182 = ORIENTED_EDGE ( 'NONE', *, *, #24, .F. ) ;
#183 = PLANE ( 'NONE',  #129 ) ;
#184 = AXIS2_PLACEMENT_3D ( 'NONE', #151, #8, #77 ) ;
#185 = DIRECTION ( 'NONE',  ( 0.0000000000000000000, 1.000000000000000000, 0.0000000000000000000 ) ) ;
#186 = DIRECTION ( 'NONE',  ( 0.0000000000000000000, 1.000000000000000000, 0.0000000000000000000 ) ) ;
#187 = CC_DESIGN_PERSON_AND_ORGANIZATION_ASSIGNMENT ( #107, #87, ( #161 ) ) ;
#188 = COORDINATED_UNIVERSAL_TIME_OFFSET ( 1, 0, .AHEAD. ) ;
#189 = PERSON_AND_ORGANIZATION ( #10, #92 ) ;
#190 = PERSON_AND_ORGANIZATION ( #10, #92 ) ;
#191 = EDGE_CURVE ( 'NONE', #51, #51, #137, .T. ) ;
#192 = SECURITY_CLASSIFICATION_LEVEL ( 'unclassified' ) ;
#193 =( LENGTH_UNIT ( ) NAMED_UNIT ( * ) SI_UNIT ( .MILLI., .METRE. ) );
#194 = ADVANCED_FACE ( 'NONE', ( #135, #30 ), #91, .T. ) ;
#195 = DIRECTION ( 'NONE',  ( -3.349443381543040427E-31, -1.000000000000000000, -9.427844978134881830E-17 ) ) ;
#196 = CARTESIAN_POINT ( 'NONE',  ( 1.047444401652940007E-13, -3.673940397442059178E-15, 30.00000000000000000 ) ) ;
#197 = ORIENTED_EDGE ( 'NONE', *, *, #148, .F. ) ;
#198 = DATE_AND_TIME ( #152, #119 ) ;
#199 = CARTESIAN_POINT ( 'NONE',  ( 2.793185071074506684E-14, 0.5749999999999962919, 8.000000000000000000 ) ) ;
#200 = APPROVAL_PERSON_ORGANIZATION ( #68, #153, #31 ) ;
#201 = VERTEX_POINT ( 'NONE', #67 ) ;
#202 = CC_DESIGN_DATE_AND_TIME_ASSIGNMENT ( #69, #86, ( #126 ) ) ;
#203 = PERSON_AND_ORGANIZATION_ROLE ( 'classification_officer' ) ;
ENDSEC;
END-ISO-10303-21;
