ISO-10303-21;
HEADER;
FILE_DESCRIPTION (( 'STEP AP203' ),
    '1' );
FILE_NAME ('53595.step',
    '2021-10-06T09:22:55',
    ( '' ),
    ( '' ),
    'SwSTEP 2.0',
    'SolidWorks 2019',
    '' );
FILE_SCHEMA (( 'CONFIG_CONTROL_DESIGN' ));
ENDSEC;

DATA;
#1 = COORDINATED_UNIVERSAL_TIME_OFFSET ( 1, 0, .AHEAD. ) ;
#2 = APPROVAL_PERSON_ORGANIZATION ( #33, #20, #69 ) ;
#3 = ORIENTED_EDGE ( 'NONE', *, *, #23, .F. ) ;
#4 = DIRECTION ( 'NONE',  ( 0.0000000000000000000, 1.000000000000000000, 0.0000000000000000000 ) ) ;
#5 = PRODUCT_DEFINITION ( 'UNKNOWN', '', #197, #189 ) ;
#6 = PERSON_AND_ORGANIZATION_ROLE ( 'classification_officer' ) ;
#7 = FACE_OUTER_BOUND ( 'NONE', #152, .T. ) ;
#8 = AXIS2_PLACEMENT_3D ( 'NONE', #196, #125, #121 ) ;
#9 = CC_DESIGN_APPROVAL ( #14, ( #27 ) ) ;
#10 = EDGE_LOOP ( 'NONE', ( #44 ) ) ;
#11 = EDGE_LOOP ( 'NONE', ( #75 ) ) ;
#12 = PLANE ( 'NONE',  #112 ) ;
#13 = DIRECTION ( 'NONE',  ( -3.491481338843133355E-15, 1.224646799147353207E-16, -1.000000000000000000 ) ) ;
#14 = APPROVAL ( #129, 'UNSPECIFIED' ) ;
#15 = DIRECTION ( 'NONE',  ( -4.275831445896958607E-31, -1.000000000000000000, -1.224646799147353207E-16 ) ) ;
#16 = CIRCLE ( 'NONE', #92, 0.5499999999999972689 ) ;
#17 = DIRECTION ( 'NONE',  ( -3.491481338843133355E-15, 1.224646799147353207E-16, -1.000000000000000000 ) ) ;
#18 = DIRECTION ( 'NONE',  ( -3.491481338843133355E-15, 1.224646799147353207E-16, -1.000000000000000000 ) ) ;
#19 = DATE_AND_TIME ( #57, #86 ) ;
#20 = APPROVAL ( #55, 'UNSPECIFIED' ) ;
#21 = CALENDAR_DATE ( 2021, 6, 10 ) ;
#22 = PERSON_AND_ORGANIZATION ( #147, #115 ) ;
#23 = EDGE_CURVE ( 'NONE', #66, #66, #160, .T. ) ;
#24 = CC_DESIGN_SECURITY_CLASSIFICATION ( #27, ( #197 ) ) ;
#25 = DIRECTION ( 'NONE',  ( -3.491481338843133355E-15, 1.224646799147353207E-16, -1.000000000000000000 ) ) ;
#26 = CC_DESIGN_DATE_AND_TIME_ASSIGNMENT ( #19, #84, ( #27 ) ) ;
#27 = SECURITY_CLASSIFICATION ( '', '', #119 ) ;
#28 = DIRECTION ( 'NONE',  ( 3.491481338843133355E-15, -1.224646799147353207E-16, 1.000000000000000000 ) ) ;
#29 = ORIENTED_EDGE ( 'NONE', *, *, #42, .F. ) ;
#30 = DIRECTION ( 'NONE',  ( 4.275831445896958607E-31, 1.000000000000000000, 1.224646799147352961E-16 ) ) ;
#31 = FACE_OUTER_BOUND ( 'NONE', #59, .T. ) ;
#32 = AXIS2_PLACEMENT_3D ( 'NONE', #62, #17, #113 ) ;
#33 = PERSON_AND_ORGANIZATION ( #147, #115 ) ;
#34 = FACE_OUTER_BOUND ( 'NONE', #194, .T. ) ;
#35 = COORDINATED_UNIVERSAL_TIME_OFFSET ( 1, 0, .AHEAD. ) ;
#36 = AXIS2_PLACEMENT_3D ( 'NONE', #168, #185, #30 ) ;
#37 = LOCAL_TIME ( 11, 22, 55.00000000000000000, #1 ) ;
#38 = PERSON_AND_ORGANIZATION_ROLE ( 'creator' ) ;
#39 = DATE_TIME_ROLE ( 'creation_date' ) ;
#40 = APPLICATION_CONTEXT ( 'configuration controlled 3d designs of mechanical parts and assemblies' ) ;
#41 = APPROVAL_DATE_TIME ( #132, #136 ) ;
#42 = EDGE_CURVE ( 'NONE', #64, #64, #71, .T. ) ;
#43 = APPROVAL_DATE_TIME ( #193, #14 ) ;
#44 = ORIENTED_EDGE ( 'NONE', *, *, #67, .F. ) ;
#45 = ORIENTED_EDGE ( 'NONE', *, *, #67, .T. ) ;
#46 = AXIS2_PLACEMENT_3D ( 'NONE', #148, #178, #80 ) ;
#47 = DIRECTION ( 'NONE',  ( 4.275831445896958607E-31, 1.000000000000000000, 1.224646799147353207E-16 ) ) ;
#48 = EDGE_CURVE ( 'NONE', #186, #186, #188, .T. ) ;
#49 = CARTESIAN_POINT ( 'NONE',  ( 2.793185071074506684E-14, -9.797174393178825657E-16, 8.000000000000000000 ) ) ;
#50 = APPLICATION_PROTOCOL_DEFINITION ( 'international standard', 'config_control_design', 1994, #52 ) ;
#51 = LOCAL_TIME ( 11, 22, 55.00000000000000000, #35 ) ;
#52 = APPLICATION_CONTEXT ( 'configuration controlled 3d designs of mechanical parts and assemblies' ) ;
#53 = ADVANCED_FACE ( 'NONE', ( #7 ), #12, .F. ) ;
#54 = COORDINATED_UNIVERSAL_TIME_OFFSET ( 1, 0, .AHEAD. ) ;
#55 = APPROVAL_STATUS ( 'not_yet_approved' ) ;
#56 = PERSON_AND_ORGANIZATION ( #147, #115 ) ;
#57 = CALENDAR_DATE ( 2021, 6, 10 ) ;
#58 = FACE_OUTER_BOUND ( 'NONE', #94, .T. ) ;
#59 = EDGE_LOOP ( 'NONE', ( #29 ) ) ;
#60 = LOCAL_TIME ( 11, 22, 55.00000000000000000, #72 ) ;
#61 = EDGE_LOOP ( 'NONE', ( #106 ) ) ;
#62 = CARTESIAN_POINT ( 'NONE',  ( 1.047444401652940007E-13, -3.673940397442059178E-15, 30.00000000000000000 ) ) ;
#63 = AXIS2_PLACEMENT_3D ( 'NONE', #159, #157, #15 ) ;
#64 = VERTEX_POINT ( 'NONE', #109 ) ;
#65 = CARTESIAN_POINT ( 'NONE',  ( 1.108694229968406420E-15, -3.888775875324677752E-17, 0.3175426480542957730 ) ) ;
#66 = VERTEX_POINT ( 'NONE', #138 ) ;
#67 = EDGE_CURVE ( 'NONE', #127, #127, #101, .T. ) ;
#68 = PERSON_AND_ORGANIZATION ( #147, #115 ) ;
#69 = APPROVAL_ROLE ( '' ) ;
#70 = CC_DESIGN_PERSON_AND_ORGANIZATION_ASSIGNMENT ( #56, #177, ( #197 ) ) ;
#71 = CIRCLE ( 'NONE', #124, 0.5500000000000000444 ) ;
#72 = COORDINATED_UNIVERSAL_TIME_OFFSET ( 1, 0, .AHEAD. ) ;
#73 = DIRECTION ( 'NONE',  ( -4.275831445896958607E-31, -1.000000000000000000, -1.224646799147353207E-16 ) ) ;
#74 = CALENDAR_DATE ( 2021, 6, 10 ) ;
#75 = ORIENTED_EDGE ( 'NONE', *, *, #48, .F. ) ;
#76 = CC_DESIGN_PERSON_AND_ORGANIZATION_ASSIGNMENT ( #88, #130, ( #197 ) ) ;
#77 = CARTESIAN_POINT ( 'NONE',  ( 2.793185071074506684E-14, 4.124339402320074210E-33, 8.000000000000000000 ) ) ;
#78 = CARTESIAN_POINT ( 'NONE',  ( 2.793185071074506684E-14, 0.5499999999999963807, 8.000000000000000000 ) ) ;
#79 = AXIS2_PLACEMENT_3D ( 'NONE', #137, #135, #191 ) ;
#80 = DIRECTION ( 'NONE',  ( 1.000000000000000000, 0.0000000000000000000, 0.0000000000000000000 ) ) ;
#81 = ADVANCED_FACE ( 'NONE', ( #58 ), #131, .F. ) ;
#82 = CYLINDRICAL_SURFACE ( 'NONE', #36, 0.5499999999999969358 ) ;
#83 = MANIFOLD_SOLID_BREP ( 'Corps-Déplacer/Copier1[1]', #195 ) ;
#84 = DATE_TIME_ROLE ( 'classification_date' ) ;
#85 = APPROVAL_STATUS ( 'not_yet_approved' ) ;
#86 = LOCAL_TIME ( 11, 22, 55.00000000000000000, #179 ) ;
#87 = CARTESIAN_POINT ( 'NONE',  ( 1.040461438975253740E-13, -3.649447461459112464E-15, 29.80000000000000071 ) ) ;
#88 = PERSON_AND_ORGANIZATION ( #147, #115 ) ;
#89 = DIRECTION ( 'NONE',  ( 0.0000000000000000000, 1.000000000000000000, 0.0000000000000000000 ) ) ;
#90 = SHAPE_DEFINITION_REPRESENTATION ( #100, #155 ) ;
#91 = CC_DESIGN_APPROVAL ( #20, ( #5 ) ) ;
#92 = AXIS2_PLACEMENT_3D ( 'NONE', #49, #111, #139 ) ;
#93 = ADVANCED_FACE ( 'NONE', ( #190, #142 ), #156, .T. ) ;
#94 = EDGE_LOOP ( 'NONE', ( #3 ) ) ;
#95 = DIRECTION ( 'NONE',  ( -3.501690807976815351E-31, -1.000000000000000000, -9.856383386231922922E-17 ) ) ;
#96 = FACE_OUTER_BOUND ( 'NONE', #61, .T. ) ;
#97 = PRODUCT_RELATED_PRODUCT_CATEGORY ( 'detail', '', ( #158 ) ) ;
#98 =( NAMED_UNIT ( * ) SI_UNIT ( $, .STERADIAN. ) SOLID_ANGLE_UNIT ( ) );
#99 = MECHANICAL_CONTEXT ( 'NONE', #40, 'mechanical' ) ;
#100 = PRODUCT_DEFINITION_SHAPE ( 'NONE', 'NONE',  #5 ) ;
#101 = CIRCLE ( 'NONE', #79, 0.5499999999999963807 ) ;
#102 = CONICAL_SURFACE ( 'NONE', #192, 0.5499999999999963807, 1.047197551196592746 ) ;
#103 = CARTESIAN_POINT ( 'NONE',  ( 1.047444401652940007E-13, -3.673940397442059178E-15, 30.00000000000000000 ) ) ;
#104 = PERSON_AND_ORGANIZATION ( #147, #115 ) ;
#105 = EDGE_CURVE ( 'NONE', #107, #107, #16, .T. ) ;
#106 = ORIENTED_EDGE ( 'NONE', *, *, #105, .F. ) ;
#107 = VERTEX_POINT ( 'NONE', #167 ) ;
#108 = FACE_OUTER_BOUND ( 'NONE', #151, .T. ) ;
#109 = CARTESIAN_POINT ( 'NONE',  ( 1.040461438975253740E-13, 0.5499999999999963807, 29.80000000000000071 ) ) ;
#110 = ADVANCED_FACE ( 'NONE', ( #31, #198 ), #166, .T. ) ;
#111 = DIRECTION ( 'NONE',  ( -3.491481338843133355E-15, 1.224646799147353207E-16, -1.000000000000000000 ) ) ;
#112 = AXIS2_PLACEMENT_3D ( 'NONE', #77, #28, #73 ) ;
#113 = DIRECTION ( 'NONE',  ( 0.0000000000000000000, 1.000000000000000000, 0.0000000000000000000 ) ) ;
#114 = APPROVAL_PERSON_ORGANIZATION ( #68, #14, #174 ) ;
#115 = ORGANIZATION ( 'UNSPECIFIED', 'UNSPECIFIED', '' ) ;
#116 = CALENDAR_DATE ( 2021, 6, 10 ) ;
#117 = APPROVAL_DATE_TIME ( #164, #20 ) ;
#118 = UNCERTAINTY_MEASURE_WITH_UNIT (LENGTH_MEASURE( 1.000000000000000082E-05 ), #170, 'distance_accuracy_value', 'NONE');
#119 = SECURITY_CLASSIFICATION_LEVEL ( 'unclassified' ) ;
#120 = CARTESIAN_POINT ( 'NONE',  ( 2.793185071074506684E-14, -9.797174393178825657E-16, 8.000000000000000000 ) ) ;
#121 = DIRECTION ( 'NONE',  ( 4.275831445896958607E-31, 1.000000000000000000, 1.224646799147353207E-16 ) ) ;
#122 = ADVANCED_FACE ( 'NONE', ( #34 ), #102, .T. ) ;
#123 = ORIENTED_EDGE ( 'NONE', *, *, #105, .T. ) ;
#124 = AXIS2_PLACEMENT_3D ( 'NONE', #87, #146, #165 ) ;
#125 = DIRECTION ( 'NONE',  ( -3.491481338843133355E-15, 1.224646799147353207E-16, -1.000000000000000000 ) ) ;
#126 = PERSON_AND_ORGANIZATION_ROLE ( 'design_owner' ) ;
#127 = VERTEX_POINT ( 'NONE', #187 ) ;
#128 = PLANE ( 'NONE',  #63 ) ;
#129 = APPROVAL_STATUS ( 'not_yet_approved' ) ;
#130 = PERSON_AND_ORGANIZATION_ROLE ( 'design_supplier' ) ;
#131 = PLANE ( 'NONE',  #8 ) ;
#132 = DATE_AND_TIME ( #21, #60 ) ;
#133 = CC_DESIGN_DATE_AND_TIME_ASSIGNMENT ( #176, #39, ( #5 ) ) ;
#134 = EDGE_LOOP ( 'NONE', ( #183 ) ) ;
#135 = DIRECTION ( 'NONE',  ( -3.491481338843133355E-15, 1.224646799147353207E-16, -1.000000000000000000 ) ) ;
#136 = APPROVAL ( #85, 'UNSPECIFIED' ) ;
#137 = CARTESIAN_POINT ( 'NONE',  ( 1.108694229968406420E-15, -3.888775875324677752E-17, 0.3175426480542957730 ) ) ;
#138 = CARTESIAN_POINT ( 'NONE',  ( 1.047444401652940007E-13, 0.3499999999999963696, 30.00000000000000000 ) ) ;
#139 = DIRECTION ( 'NONE',  ( 0.0000000000000000000, 1.000000000000000000, 0.0000000000000000000 ) ) ;
#140 = AXIS2_PLACEMENT_3D ( 'NONE', #120, #25, #89 ) ;
#141 = AXIS2_PLACEMENT_3D ( 'NONE', #103, #13, #4 ) ;
#142 = FACE_OUTER_BOUND ( 'NONE', #134, .T. ) ;
#143 = MANIFOLD_SOLID_BREP ( 'Corps-Déplacer/Copier1[2]', #184 ) ;
#144 = APPROVAL_ROLE ( '' ) ;
#145 = APPROVAL_PERSON_ORGANIZATION ( #22, #136, #144 ) ;
#146 = DIRECTION ( 'NONE',  ( -3.491481338843133355E-15, 1.224646799147353207E-16, -1.000000000000000000 ) ) ;
#147 = PERSON ( 'UNSPECIFIED', 'UNSPECIFIED', 'UNSPECIFIED', ('UNSPECIFIED'), ('UNSPECIFIED'), ('UNSPECIFIED') ) ;
#148 = CARTESIAN_POINT ( 'NONE',  ( 0.0000000000000000000, 0.0000000000000000000, 0.0000000000000000000 ) ) ;
#149 = LOCAL_TIME ( 11, 22, 55.00000000000000000, #54 ) ;
#150 = AXIS2_PLACEMENT_3D ( 'NONE', #202, #18, #47 ) ;
#151 = EDGE_LOOP ( 'NONE', ( #123 ) ) ;
#152 = EDGE_LOOP ( 'NONE', ( #181 ) ) ;
#153 = EDGE_LOOP ( 'NONE', ( #163 ) ) ;
#154 = ADVANCED_FACE ( 'NONE', ( #96 ), #128, .T. ) ;
#155 = ADVANCED_BREP_SHAPE_REPRESENTATION ( '53595', ( #83, #143, #46 ), #182 ) ;
#156 = CYLINDRICAL_SURFACE ( 'NONE', #150, 0.5499999999999986011 ) ;
#157 = DIRECTION ( 'NONE',  ( 3.491481338843133355E-15, -1.224646799147353207E-16, 1.000000000000000000 ) ) ;
#158 = PRODUCT ( '53595', '53595', '', ( #99 ) ) ;
#159 = CARTESIAN_POINT ( 'NONE',  ( 2.793185071074506684E-14, 4.124339402320074210E-33, 8.000000000000000000 ) ) ;
#160 = CIRCLE ( 'NONE', #141, 0.3500000000000000333 ) ;
#161 =( NAMED_UNIT ( * ) PLANE_ANGLE_UNIT ( ) SI_UNIT ( $, .RADIAN. ) );
#162 = CALENDAR_DATE ( 2021, 6, 10 ) ;
#163 = ORIENTED_EDGE ( 'NONE', *, *, #23, .T. ) ;
#164 = DATE_AND_TIME ( #116, #149 ) ;
#165 = DIRECTION ( 'NONE',  ( 0.0000000000000000000, 1.000000000000000000, 0.0000000000000000000 ) ) ;
#166 = CONICAL_SURFACE ( 'NONE', #32, 0.3500000000000000333, 0.7853981633974512766 ) ;
#167 = CARTESIAN_POINT ( 'NONE',  ( 2.793185071074506684E-14, 0.5499999999999963807, 8.000000000000000000 ) ) ;
#168 = CARTESIAN_POINT ( 'NONE',  ( 0.0000000000000000000, 0.0000000000000000000, 0.0000000000000000000 ) ) ;
#169 = APPLICATION_PROTOCOL_DEFINITION ( 'international standard', 'config_control_design', 1994, #40 ) ;
#170 =( LENGTH_UNIT ( ) NAMED_UNIT ( * ) SI_UNIT ( .MILLI., .METRE. ) );
#171 = DIRECTION ( 'NONE',  ( 3.491481338843133355E-15, -1.224646799147353207E-16, 1.000000000000000000 ) ) ;
#172 = CC_DESIGN_APPROVAL ( #136, ( #197 ) ) ;
#173 = CC_DESIGN_PERSON_AND_ORGANIZATION_ASSIGNMENT ( #175, #38, ( #5 ) ) ;
#174 = APPROVAL_ROLE ( '' ) ;
#175 = PERSON_AND_ORGANIZATION ( #147, #115 ) ;
#176 = DATE_AND_TIME ( #162, #37 ) ;
#177 = PERSON_AND_ORGANIZATION_ROLE ( 'creator' ) ;
#178 = DIRECTION ( 'NONE',  ( 0.0000000000000000000, 0.0000000000000000000, 1.000000000000000000 ) ) ;
#179 = COORDINATED_UNIVERSAL_TIME_OFFSET ( 1, 0, .AHEAD. ) ;
#180 = CC_DESIGN_PERSON_AND_ORGANIZATION_ASSIGNMENT ( #200, #126, ( #158 ) ) ;
#181 = ORIENTED_EDGE ( 'NONE', *, *, #48, .T. ) ;
#182 =( GEOMETRIC_REPRESENTATION_CONTEXT ( 3 ) GLOBAL_UNCERTAINTY_ASSIGNED_CONTEXT ( ( #118 ) ) GLOBAL_UNIT_ASSIGNED_CONTEXT ( ( #170, #161, #98 ) ) REPRESENTATION_CONTEXT ( 'NONE', 'WORKASPACE' ) );
#183 = ORIENTED_EDGE ( 'NONE', *, *, #42, .T. ) ;
#184 = CLOSED_SHELL ( 'NONE', ( #122, #199, #154 ) ) ;
#185 = DIRECTION ( 'NONE',  ( -3.491481338843133355E-15, 1.224646799147353207E-16, -1.000000000000000000 ) ) ;
#186 = VERTEX_POINT ( 'NONE', #78 ) ;
#187 = CARTESIAN_POINT ( 'NONE',  ( 1.108694229968406617E-15, 0.5499999999999963807, 0.3175426480542958285 ) ) ;
#188 = CIRCLE ( 'NONE', #140, 0.5499999999999972689 ) ;
#189 = DESIGN_CONTEXT ( 'detailed design', #52, 'design' ) ;
#190 = FACE_OUTER_BOUND ( 'NONE', #11, .T. ) ;
#191 = DIRECTION ( 'NONE',  ( 3.501690807976815351E-31, 1.000000000000000000, 9.856383386231922922E-17 ) ) ;
#192 = AXIS2_PLACEMENT_3D ( 'NONE', #65, #171, #95 ) ;
#193 = DATE_AND_TIME ( #74, #51 ) ;
#194 = EDGE_LOOP ( 'NONE', ( #45 ) ) ;
#195 = CLOSED_SHELL ( 'NONE', ( #53, #93, #110, #81 ) ) ;
#196 = CARTESIAN_POINT ( 'NONE',  ( 1.047444401652940007E-13, 2.624579619658196075E-33, 30.00000000000000000 ) ) ;
#197 = PRODUCT_DEFINITION_FORMATION_WITH_SPECIFIED_SOURCE ( 'ANY', '', #158, .NOT_KNOWN. ) ;
#198 = FACE_BOUND ( 'NONE', #153, .T. ) ;
#199 = ADVANCED_FACE ( 'NONE', ( #201, #108 ), #82, .T. ) ;
#200 = PERSON_AND_ORGANIZATION ( #147, #115 ) ;
#201 = FACE_OUTER_BOUND ( 'NONE', #10, .T. ) ;
#202 = CARTESIAN_POINT ( 'NONE',  ( 0.0000000000000000000, 0.0000000000000000000, 0.0000000000000000000 ) ) ;
#203 = CC_DESIGN_PERSON_AND_ORGANIZATION_ASSIGNMENT ( #104, #6, ( #27 ) ) ;
ENDSEC;
END-ISO-10303-21;
