ISO-10303-21;
HEADER;
FILE_DESCRIPTION (( 'STEP AP203' ),
    '1' );
FILE_NAME ('53594.step',
    '2021-10-06T09:22:54',
    ( '' ),
    ( '' ),
    'SwSTEP 2.0',
    'SolidWorks 2019',
    '' );
FILE_SCHEMA (( 'CONFIG_CONTROL_DESIGN' ));
ENDSEC;

DATA;
#1 =( NAMED_UNIT ( * ) PLANE_ANGLE_UNIT ( ) SI_UNIT ( $, .RADIAN. ) );
#2 = EDGE_CURVE ( 'NONE', #157, #157, #97, .T. ) ;
#3 = CARTESIAN_POINT ( 'NONE',  ( 2.793185071074506684E-14, 0.5249999999999963585, 8.000000000000000000 ) ) ;
#4 = PERSON_AND_ORGANIZATION_ROLE ( 'design_owner' ) ;
#5 = AXIS2_PLACEMENT_3D ( 'NONE', #60, #107, #154 ) ;
#6 = DIRECTION ( 'NONE',  ( 1.000000000000000000, 0.0000000000000000000, 0.0000000000000000000 ) ) ;
#7 = ADVANCED_FACE ( 'NONE', ( #151 ), #150, .F. ) ;
#8 = LOCAL_TIME ( 11, 22, 54.00000000000000000, #23 ) ;
#9 = SECURITY_CLASSIFICATION_LEVEL ( 'unclassified' ) ;
#10 = CALENDAR_DATE ( 2021, 6, 10 ) ;
#11 = CC_DESIGN_DATE_AND_TIME_ASSIGNMENT ( #140, #51, ( #129 ) ) ;
#12 = MANIFOLD_SOLID_BREP ( 'Corps-Déplacer/Copier1[1]', #100 ) ;
#13 = EDGE_LOOP ( 'NONE', ( #44 ) ) ;
#14 = PRODUCT ( '53594', '53594', '', ( #196 ) ) ;
#15 = CARTESIAN_POINT ( 'NONE',  ( 1.047444401652940007E-13, 2.437109646825463875E-33, 30.00000000000000000 ) ) ;
#16 = APPROVAL ( #55, 'UNSPECIFIED' ) ;
#17 = CALENDAR_DATE ( 2021, 6, 10 ) ;
#18 = DIRECTION ( 'NONE',  ( 4.275831445896958607E-31, 1.000000000000000000, 1.224646799147353207E-16 ) ) ;
#19 = AXIS2_PLACEMENT_3D ( 'NONE', #90, #108, #189 ) ;
#20 = APPROVAL_ROLE ( '' ) ;
#21 = LOCAL_TIME ( 11, 22, 54.00000000000000000, #25 ) ;
#22 = CLOSED_SHELL ( 'NONE', ( #64, #202, #112 ) ) ;
#23 = COORDINATED_UNIVERSAL_TIME_OFFSET ( 1, 0, .AHEAD. ) ;
#24 = DATE_AND_TIME ( #113, #201 ) ;
#25 = COORDINATED_UNIVERSAL_TIME_OFFSET ( 1, 0, .AHEAD. ) ;
#26 = CC_DESIGN_PERSON_AND_ORGANIZATION_ASSIGNMENT ( #114, #42, ( #119 ) ) ;
#27 = DIRECTION ( 'NONE',  ( 0.0000000000000000000, 1.000000000000000000, 0.0000000000000000000 ) ) ;
#28 = DIRECTION ( 'NONE',  ( 3.491481338843133355E-15, -1.224646799147353207E-16, 1.000000000000000000 ) ) ;
#29 = CARTESIAN_POINT ( 'NONE',  ( 2.793185071074506684E-14, -9.797174393178825657E-16, 8.000000000000000000 ) ) ;
#30 = APPROVAL_DATE_TIME ( #138, #194 ) ;
#31 = AXIS2_PLACEMENT_3D ( 'NONE', #74, #131, #148 ) ;
#32 = DIRECTION ( 'NONE',  ( -4.275831445896958607E-31, -1.000000000000000000, -1.224646799147353207E-16 ) ) ;
#33 = SHAPE_DEFINITION_REPRESENTATION ( #190, #177 ) ;
#34 = CARTESIAN_POINT ( 'NONE',  ( 1.047444401652940007E-13, -3.673940397442059178E-15, 30.00000000000000000 ) ) ;
#35 =( LENGTH_UNIT ( ) NAMED_UNIT ( * ) SI_UNIT ( .MILLI., .METRE. ) );
#36 = EDGE_CURVE ( 'NONE', #80, #80, #184, .T. ) ;
#37 =( NAMED_UNIT ( * ) SI_UNIT ( $, .STERADIAN. ) SOLID_ANGLE_UNIT ( ) );
#38 = DIRECTION ( 'NONE',  ( -3.491481338843133355E-15, 1.224646799147353207E-16, -1.000000000000000000 ) ) ;
#39 = APPLICATION_PROTOCOL_DEFINITION ( 'international standard', 'config_control_design', 1994, #50 ) ;
#40 = CIRCLE ( 'NONE', #115, 0.5249999999999963585 ) ;
#41 = COORDINATED_UNIVERSAL_TIME_OFFSET ( 1, 0, .AHEAD. ) ;
#42 = PERSON_AND_ORGANIZATION_ROLE ( 'creator' ) ;
#43 = LOCAL_TIME ( 11, 22, 54.00000000000000000, #81 ) ;
#44 = ORIENTED_EDGE ( 'NONE', *, *, #2, .T. ) ;
#45 = EDGE_CURVE ( 'NONE', #122, #122, #59, .T. ) ;
#46 = ORIENTED_EDGE ( 'NONE', *, *, #45, .F. ) ;
#47 = FACE_BOUND ( 'NONE', #79, .T. ) ;
#48 = PERSON_AND_ORGANIZATION ( #158, #165 ) ;
#49 = CC_DESIGN_PERSON_AND_ORGANIZATION_ASSIGNMENT ( #57, #4, ( #14 ) ) ;
#50 = APPLICATION_CONTEXT ( 'configuration controlled 3d designs of mechanical parts and assemblies' ) ;
#51 = DATE_TIME_ROLE ( 'classification_date' ) ;
#52 = DIRECTION ( 'NONE',  ( -3.491481338843133355E-15, 1.224646799147353207E-16, -1.000000000000000000 ) ) ;
#53 = CARTESIAN_POINT ( 'NONE',  ( 0.0000000000000000000, 0.0000000000000000000, 0.0000000000000000000 ) ) ;
#54 = ADVANCED_FACE ( 'NONE', ( #156 ), #66, .F. ) ;
#55 = APPROVAL_STATUS ( 'not_yet_approved' ) ;
#56 =( GEOMETRIC_REPRESENTATION_CONTEXT ( 3 ) GLOBAL_UNCERTAINTY_ASSIGNED_CONTEXT ( ( #161 ) ) GLOBAL_UNIT_ASSIGNED_CONTEXT ( ( #35, #1, #37 ) ) REPRESENTATION_CONTEXT ( 'NONE', 'WORKASPACE' ) );
#57 = PERSON_AND_ORGANIZATION ( #158, #165 ) ;
#58 = ORIENTED_EDGE ( 'NONE', *, *, #36, .F. ) ;
#59 = CIRCLE ( 'NONE', #5, 0.5249999999999973577 ) ;
#60 = CARTESIAN_POINT ( 'NONE',  ( 2.793185071074506684E-14, -9.797174393178825657E-16, 8.000000000000000000 ) ) ;
#61 = FACE_OUTER_BOUND ( 'NONE', #149, .T. ) ;
#62 = DIRECTION ( 'NONE',  ( -3.491481338843133355E-15, 1.224646799147353207E-16, -1.000000000000000000 ) ) ;
#63 = DIRECTION ( 'NONE',  ( 4.275831445896958607E-31, 1.000000000000000000, 1.224646799147353207E-16 ) ) ;
#64 = ADVANCED_FACE ( 'NONE', ( #94 ), #135, .T. ) ;
#65 = FACE_OUTER_BOUND ( 'NONE', #169, .T. ) ;
#66 = PLANE ( 'NONE',  #99 ) ;
#67 = CC_DESIGN_PERSON_AND_ORGANIZATION_ASSIGNMENT ( #199, #71, ( #129 ) ) ;
#68 = APPROVAL_ROLE ( '' ) ;
#69 = CC_DESIGN_APPROVAL ( #194, ( #129 ) ) ;
#70 = APPROVAL_ROLE ( '' ) ;
#71 = PERSON_AND_ORGANIZATION_ROLE ( 'classification_officer' ) ;
#72 = EDGE_CURVE ( 'NONE', #126, #126, #40, .T. ) ;
#73 = MANIFOLD_SOLID_BREP ( 'Corps-Déplacer/Copier1[2]', #22 ) ;
#74 = CARTESIAN_POINT ( 'NONE',  ( 1.058299037697114879E-15, -3.712013335537191335E-17, 0.3031088913245549854 ) ) ;
#75 = ORIENTED_EDGE ( 'NONE', *, *, #36, .T. ) ;
#76 = DIRECTION ( 'NONE',  ( -3.491481338843133355E-15, 1.224646799147353207E-16, -1.000000000000000000 ) ) ;
#77 = LOCAL_TIME ( 11, 22, 54.00000000000000000, #41 ) ;
#78 = APPROVAL_PERSON_ORGANIZATION ( #85, #16, #68 ) ;
#79 = EDGE_LOOP ( 'NONE', ( #88 ) ) ;
#80 = VERTEX_POINT ( 'NONE', #83 ) ;
#81 = COORDINATED_UNIVERSAL_TIME_OFFSET ( 1, 0, .AHEAD. ) ;
#82 = DESIGN_CONTEXT ( 'detailed design', #198, 'design' ) ;
#83 = CARTESIAN_POINT ( 'NONE',  ( 2.793185071074506684E-14, 0.5249999999999963585, 8.000000000000000000 ) ) ;
#84 = DIRECTION ( 'NONE',  ( 3.668437989309046175E-31, 1.000000000000000000, 1.032573497605249497E-16 ) ) ;
#85 = PERSON_AND_ORGANIZATION ( #158, #165 ) ;
#86 = APPROVAL_DATE_TIME ( #24, #16 ) ;
#87 = PERSON_AND_ORGANIZATION_ROLE ( 'design_supplier' ) ;
#88 = ORIENTED_EDGE ( 'NONE', *, *, #117, .T. ) ;
#89 = DIRECTION ( 'NONE',  ( -3.491481338843133355E-15, 1.224646799147353207E-16, -1.000000000000000000 ) ) ;
#90 = CARTESIAN_POINT ( 'NONE',  ( 1.047444401652940007E-13, -3.673940397442059178E-15, 30.00000000000000000 ) ) ;
#91 = AXIS2_PLACEMENT_3D ( 'NONE', #101, #186, #6 ) ;
#92 = ORIENTED_EDGE ( 'NONE', *, *, #117, .F. ) ;
#93 = DIRECTION ( 'NONE',  ( 0.0000000000000000000, 1.000000000000000000, 0.0000000000000000000 ) ) ;
#94 = FACE_OUTER_BOUND ( 'NONE', #133, .T. ) ;
#95 = CYLINDRICAL_SURFACE ( 'NONE', #197, 0.5249999999999988010 ) ;
#96 = CARTESIAN_POINT ( 'NONE',  ( 1.058299037697114879E-15, -3.712013335537191335E-17, 0.3031088913245549854 ) ) ;
#97 = CIRCLE ( 'NONE', #125, 0.5250000000000000222 ) ;
#98 = CARTESIAN_POINT ( 'NONE',  ( 1.040461438975253740E-13, 0.5249999999999963585, 29.80000000000000071 ) ) ;
#99 = AXIS2_PLACEMENT_3D ( 'NONE', #159, #171, #116 ) ;
#100 = CLOSED_SHELL ( 'NONE', ( #54, #147, #130, #7 ) ) ;
#101 = CARTESIAN_POINT ( 'NONE',  ( 0.0000000000000000000, 0.0000000000000000000, 0.0000000000000000000 ) ) ;
#102 = PRODUCT_DEFINITION ( 'UNKNOWN', '', #119, #82 ) ;
#103 = APPROVAL_DATE_TIME ( #142, #153 ) ;
#104 = EDGE_LOOP ( 'NONE', ( #46 ) ) ;
#105 = CC_DESIGN_APPROVAL ( #16, ( #119 ) ) ;
#106 = CARTESIAN_POINT ( 'NONE',  ( 1.040461438975253740E-13, -3.649447461459112464E-15, 29.80000000000000071 ) ) ;
#107 = DIRECTION ( 'NONE',  ( -3.491481338843133355E-15, 1.224646799147353207E-16, -1.000000000000000000 ) ) ;
#108 = DIRECTION ( 'NONE',  ( -3.491481338843133355E-15, 1.224646799147353207E-16, -1.000000000000000000 ) ) ;
#109 = AXIS2_PLACEMENT_3D ( 'NONE', #53, #38, #18 ) ;
#110 = APPROVAL_STATUS ( 'not_yet_approved' ) ;
#111 = CYLINDRICAL_SURFACE ( 'NONE', #109, 0.5249999999999968026 ) ;
#112 = ADVANCED_FACE ( 'NONE', ( #181 ), #141, .T. ) ;
#113 = CALENDAR_DATE ( 2021, 6, 10 ) ;
#114 = PERSON_AND_ORGANIZATION ( #158, #165 ) ;
#115 = AXIS2_PLACEMENT_3D ( 'NONE', #96, #52, #84 ) ;
#116 = DIRECTION ( 'NONE',  ( -4.275831445896958607E-31, -1.000000000000000000, -1.224646799147353207E-16 ) ) ;
#117 = EDGE_CURVE ( 'NONE', #179, #179, #195, .T. ) ;
#118 = FACE_OUTER_BOUND ( 'NONE', #172, .T. ) ;
#119 = PRODUCT_DEFINITION_FORMATION_WITH_SPECIFIED_SOURCE ( 'ANY', '', #14, .NOT_KNOWN. ) ;
#120 = DIRECTION ( 'NONE',  ( -3.491481338843133355E-15, 1.224646799147353207E-16, -1.000000000000000000 ) ) ;
#121 = ORIENTED_EDGE ( 'NONE', *, *, #2, .F. ) ;
#122 = VERTEX_POINT ( 'NONE', #3 ) ;
#123 = CC_DESIGN_PERSON_AND_ORGANIZATION_ASSIGNMENT ( #128, #168, ( #102 ) ) ;
#124 = CALENDAR_DATE ( 2021, 6, 10 ) ;
#125 = AXIS2_PLACEMENT_3D ( 'NONE', #106, #62, #27 ) ;
#126 = VERTEX_POINT ( 'NONE', #160 ) ;
#127 = CONICAL_SURFACE ( 'NONE', #192, 0.3250000000000000666, 0.7853981633974512766 ) ;
#128 = PERSON_AND_ORGANIZATION ( #158, #165 ) ;
#129 = SECURITY_CLASSIFICATION ( '', '', #9 ) ;
#130 = ADVANCED_FACE ( 'NONE', ( #118, #47 ), #127, .T. ) ;
#131 = DIRECTION ( 'NONE',  ( 3.491481338843133355E-15, -1.224646799147353207E-16, 1.000000000000000000 ) ) ;
#132 = EDGE_LOOP ( 'NONE', ( #75 ) ) ;
#133 = EDGE_LOOP ( 'NONE', ( #137 ) ) ;
#134 = DIRECTION ( 'NONE',  ( -3.491481338843133355E-15, 1.224646799147353207E-16, -1.000000000000000000 ) ) ;
#135 = CONICAL_SURFACE ( 'NONE', #31, 0.5249999999999963585, 1.047197551196592746 ) ;
#136 = AXIS2_PLACEMENT_3D ( 'NONE', #29, #120, #191 ) ;
#137 = ORIENTED_EDGE ( 'NONE', *, *, #72, .T. ) ;
#138 = DATE_AND_TIME ( #17, #43 ) ;
#139 = AXIS2_PLACEMENT_3D ( 'NONE', #152, #28, #32 ) ;
#140 = DATE_AND_TIME ( #124, #77 ) ;
#141 = PLANE ( 'NONE',  #139 ) ;
#142 = DATE_AND_TIME ( #162, #8 ) ;
#143 = APPROVAL_PERSON_ORGANIZATION ( #183, #153, #70 ) ;
#144 = COORDINATED_UNIVERSAL_TIME_OFFSET ( 1, 0, .AHEAD. ) ;
#145 = PERSON_AND_ORGANIZATION ( #158, #165 ) ;
#146 = ORIENTED_EDGE ( 'NONE', *, *, #72, .F. ) ;
#147 = ADVANCED_FACE ( 'NONE', ( #61, #188 ), #95, .T. ) ;
#148 = DIRECTION ( 'NONE',  ( -3.668437989309046175E-31, -1.000000000000000000, -1.032573497605249497E-16 ) ) ;
#149 = EDGE_LOOP ( 'NONE', ( #58 ) ) ;
#150 = PLANE ( 'NONE',  #193 ) ;
#151 = FACE_OUTER_BOUND ( 'NONE', #173, .T. ) ;
#152 = CARTESIAN_POINT ( 'NONE',  ( 2.793185071074506684E-14, 3.936869429487342009E-33, 8.000000000000000000 ) ) ;
#153 = APPROVAL ( #187, 'UNSPECIFIED' ) ;
#154 = DIRECTION ( 'NONE',  ( 0.0000000000000000000, 1.000000000000000000, 0.0000000000000000000 ) ) ;
#155 = CC_DESIGN_SECURITY_CLASSIFICATION ( #129, ( #119 ) ) ;
#156 = FACE_OUTER_BOUND ( 'NONE', #132, .T. ) ;
#157 = VERTEX_POINT ( 'NONE', #98 ) ;
#158 = PERSON ( 'UNSPECIFIED', 'UNSPECIFIED', 'UNSPECIFIED', ('UNSPECIFIED'), ('UNSPECIFIED'), ('UNSPECIFIED') ) ;
#159 = CARTESIAN_POINT ( 'NONE',  ( 2.793185071074506684E-14, 3.936869429487342009E-33, 8.000000000000000000 ) ) ;
#160 = CARTESIAN_POINT ( 'NONE',  ( 1.058299037697115076E-15, 0.5249999999999963585, 0.3031088913245550409 ) ) ;
#161 = UNCERTAINTY_MEASURE_WITH_UNIT (LENGTH_MEASURE( 1.000000000000000082E-05 ), #35, 'distance_accuracy_value', 'NONE');
#162 = CALENDAR_DATE ( 2021, 6, 10 ) ;
#163 = CC_DESIGN_PERSON_AND_ORGANIZATION_ASSIGNMENT ( #145, #87, ( #119 ) ) ;
#164 = APPLICATION_PROTOCOL_DEFINITION ( 'international standard', 'config_control_design', 1994, #198 ) ;
#165 = ORGANIZATION ( 'UNSPECIFIED', 'UNSPECIFIED', '' ) ;
#166 = DATE_TIME_ROLE ( 'creation_date' ) ;
#167 = CC_DESIGN_APPROVAL ( #153, ( #102 ) ) ;
#168 = PERSON_AND_ORGANIZATION_ROLE ( 'creator' ) ;
#169 = EDGE_LOOP ( 'NONE', ( #146 ) ) ;
#170 = ORIENTED_EDGE ( 'NONE', *, *, #45, .T. ) ;
#171 = DIRECTION ( 'NONE',  ( 3.491481338843133355E-15, -1.224646799147353207E-16, 1.000000000000000000 ) ) ;
#172 = EDGE_LOOP ( 'NONE', ( #121 ) ) ;
#173 = EDGE_LOOP ( 'NONE', ( #92 ) ) ;
#174 = APPROVAL_PERSON_ORGANIZATION ( #48, #194, #20 ) ;
#175 = CARTESIAN_POINT ( 'NONE',  ( 0.0000000000000000000, 0.0000000000000000000, 0.0000000000000000000 ) ) ;
#176 = CC_DESIGN_DATE_AND_TIME_ASSIGNMENT ( #185, #166, ( #102 ) ) ;
#177 = ADVANCED_BREP_SHAPE_REPRESENTATION ( '53594', ( #12, #73, #91 ), #56 ) ;
#178 = CARTESIAN_POINT ( 'NONE',  ( 1.047444401652940007E-13, 0.3249999999999964029, 30.00000000000000000 ) ) ;
#179 = VERTEX_POINT ( 'NONE', #178 ) ;
#180 = FACE_OUTER_BOUND ( 'NONE', #203, .T. ) ;
#181 = FACE_OUTER_BOUND ( 'NONE', #104, .T. ) ;
#182 = PRODUCT_RELATED_PRODUCT_CATEGORY ( 'detail', '', ( #14 ) ) ;
#183 = PERSON_AND_ORGANIZATION ( #158, #165 ) ;
#184 = CIRCLE ( 'NONE', #136, 0.5249999999999973577 ) ;
#185 = DATE_AND_TIME ( #10, #21 ) ;
#186 = DIRECTION ( 'NONE',  ( 0.0000000000000000000, 0.0000000000000000000, 1.000000000000000000 ) ) ;
#187 = APPROVAL_STATUS ( 'not_yet_approved' ) ;
#188 = FACE_OUTER_BOUND ( 'NONE', #13, .T. ) ;
#189 = DIRECTION ( 'NONE',  ( 0.0000000000000000000, 1.000000000000000000, 0.0000000000000000000 ) ) ;
#190 = PRODUCT_DEFINITION_SHAPE ( 'NONE', 'NONE',  #102 ) ;
#191 = DIRECTION ( 'NONE',  ( 0.0000000000000000000, 1.000000000000000000, 0.0000000000000000000 ) ) ;
#192 = AXIS2_PLACEMENT_3D ( 'NONE', #34, #134, #93 ) ;
#193 = AXIS2_PLACEMENT_3D ( 'NONE', #15, #89, #63 ) ;
#194 = APPROVAL ( #110, 'UNSPECIFIED' ) ;
#195 = CIRCLE ( 'NONE', #19, 0.3250000000000000666 ) ;
#196 = MECHANICAL_CONTEXT ( 'NONE', #50, 'mechanical' ) ;
#197 = AXIS2_PLACEMENT_3D ( 'NONE', #175, #76, #200 ) ;
#198 = APPLICATION_CONTEXT ( 'configuration controlled 3d designs of mechanical parts and assemblies' ) ;
#199 = PERSON_AND_ORGANIZATION ( #158, #165 ) ;
#200 = DIRECTION ( 'NONE',  ( 4.275831445896958607E-31, 1.000000000000000000, 1.224646799147352961E-16 ) ) ;
#201 = LOCAL_TIME ( 11, 22, 54.00000000000000000, #144 ) ;
#202 = ADVANCED_FACE ( 'NONE', ( #65, #180 ), #111, .T. ) ;
#203 = EDGE_LOOP ( 'NONE', ( #170 ) ) ;
ENDSEC;
END-ISO-10303-21;
