ISO-10303-21;
HEADER;
FILE_DESCRIPTION (( 'STEP AP203' ),
    '1' );
FILE_NAME ('53593.step',
    '2021-10-06T09:22:54',
    ( '' ),
    ( '' ),
    'SwSTEP 2.0',
    'SolidWorks 2019',
    '' );
FILE_SCHEMA (( 'CONFIG_CONTROL_DESIGN' ));
ENDSEC;

DATA;
#1 = DATE_AND_TIME ( #123, #107 ) ;
#2 = DATE_TIME_ROLE ( 'classification_date' ) ;
#3 = CLOSED_SHELL ( 'NONE', ( #41, #156, #165 ) ) ;
#4 = DATE_AND_TIME ( #191, #79 ) ;
#5 = CC_DESIGN_PERSON_AND_ORGANIZATION_ASSIGNMENT ( #164, #83, ( #144 ) ) ;
#6 = DATE_AND_TIME ( #161, #28 ) ;
#7 = AXIS2_PLACEMENT_3D ( 'NONE', #152, #173, #200 ) ;
#8 = AXIS2_PLACEMENT_3D ( 'NONE', #81, #184, #203 ) ;
#9 = EDGE_CURVE ( 'NONE', #64, #64, #47, .T. ) ;
#10 = EDGE_LOOP ( 'NONE', ( #113 ) ) ;
#11 = DIRECTION ( 'NONE',  ( 0.0000000000000000000, 1.000000000000000000, 0.0000000000000000000 ) ) ;
#12 = ORIENTED_EDGE ( 'NONE', *, *, #126, .F. ) ;
#13 = PERSON_AND_ORGANIZATION_ROLE ( 'classification_officer' ) ;
#14 = ORIENTED_EDGE ( 'NONE', *, *, #48, .T. ) ;
#15 = APPROVAL_DATE_TIME ( #4, #20 ) ;
#16 = CARTESIAN_POINT ( 'NONE',  ( 2.444036937190193349E-14, 3.561929483821878291E-33, 7.000000000000000000 ) ) ;
#17 = DIRECTION ( 'NONE',  ( 3.491481338843133355E-15, -1.224646799147353207E-16, 1.000000000000000000 ) ) ;
#18 = PRODUCT_DEFINITION_SHAPE ( 'NONE', 'NONE',  #33 ) ;
#19 = CYLINDRICAL_SURFACE ( 'NONE', #8, 0.4749999999999985900 ) ;
#20 = APPROVAL ( #24, 'UNSPECIFIED' ) ;
#21 = DIRECTION ( 'NONE',  ( -3.491481338843133355E-15, 1.224646799147353207E-16, -1.000000000000000000 ) ) ;
#22 = CIRCLE ( 'NONE', #40, 0.4749999999999963696 ) ;
#23 = CARTESIAN_POINT ( 'NONE',  ( 0.0000000000000000000, 0.0000000000000000000, 0.0000000000000000000 ) ) ;
#24 = APPROVAL_STATUS ( 'not_yet_approved' ) ;
#25 = COORDINATED_UNIVERSAL_TIME_OFFSET ( 1, 0, .AHEAD. ) ;
#26 = APPLICATION_CONTEXT ( 'configuration controlled 3d designs of mechanical parts and assemblies' ) ;
#27 = CC_DESIGN_DATE_AND_TIME_ASSIGNMENT ( #6, #109, ( #33 ) ) ;
#28 = LOCAL_TIME ( 11, 22, 54.00000000000000000, #167 ) ;
#29 = PERSON_AND_ORGANIZATION ( #163, #114 ) ;
#30 = CIRCLE ( 'NONE', #182, 0.4749999999999999778 ) ;
#31 = FACE_OUTER_BOUND ( 'NONE', #96, .T. ) ;
#32 = CARTESIAN_POINT ( 'NONE',  ( 9.575086531545315982E-16, -3.358488255962217269E-17, 0.2742413778650732437 ) ) ;
#33 = PRODUCT_DEFINITION ( 'UNKNOWN', '', #144, #162 ) ;
#34 = DIRECTION ( 'NONE',  ( 0.0000000000000000000, 1.000000000000000000, 0.0000000000000000000 ) ) ;
#35 = CARTESIAN_POINT ( 'NONE',  ( 1.047444401652940007E-13, 0.3749999999999963363, 30.00000000000000000 ) ) ;
#36 = CC_DESIGN_APPROVAL ( #20, ( #144 ) ) ;
#37 = FACE_OUTER_BOUND ( 'NONE', #10, .T. ) ;
#38 = PERSON_AND_ORGANIZATION_ROLE ( 'design_owner' ) ;
#39 = DIRECTION ( 'NONE',  ( 3.491481338843133355E-15, -1.224646799147353207E-16, 1.000000000000000000 ) ) ;
#40 = AXIS2_PLACEMENT_3D ( 'NONE', #32, #21, #61 ) ;
#41 = ADVANCED_FACE ( 'NONE', ( #31 ), #196, .T. ) ;
#42 = APPLICATION_CONTEXT ( 'configuration controlled 3d designs of mechanical parts and assemblies' ) ;
#43 = EDGE_LOOP ( 'NONE', ( #170 ) ) ;
#44 = ADVANCED_BREP_SHAPE_REPRESENTATION ( '53593', ( #74, #145, #71 ), #199 ) ;
#45 = ORIENTED_EDGE ( 'NONE', *, *, #126, .T. ) ;
#46 = DIRECTION ( 'NONE',  ( -3.491481338843133355E-15, 1.224646799147353207E-16, -1.000000000000000000 ) ) ;
#47 = CIRCLE ( 'NONE', #115, 0.4749999999999972022 ) ;
#48 = EDGE_CURVE ( 'NONE', #169, #169, #30, .T. ) ;
#49 = DIRECTION ( 'NONE',  ( -3.491481338843133355E-15, 1.224646799147353207E-16, -1.000000000000000000 ) ) ;
#50 = DIRECTION ( 'NONE',  ( 1.000000000000000000, 0.0000000000000000000, 0.0000000000000000000 ) ) ;
#51 = ADVANCED_FACE ( 'NONE', ( #56 ), #143, .F. ) ;
#52 = AXIS2_PLACEMENT_3D ( 'NONE', #134, #46, #34 ) ;
#53 =( NAMED_UNIT ( * ) SI_UNIT ( $, .STERADIAN. ) SOLID_ANGLE_UNIT ( ) );
#54 = CALENDAR_DATE ( 2021, 6, 10 ) ;
#55 = DIRECTION ( 'NONE',  ( 3.491481338843133355E-15, -1.224646799147353207E-16, 1.000000000000000000 ) ) ;
#56 = FACE_OUTER_BOUND ( 'NONE', #57, .T. ) ;
#57 = EDGE_LOOP ( 'NONE', ( #181 ) ) ;
#58 = ORIENTED_EDGE ( 'NONE', *, *, #190, .T. ) ;
#59 = APPROVAL_DATE_TIME ( #197, #88 ) ;
#60 = ORIENTED_EDGE ( 'NONE', *, *, #111, .T. ) ;
#61 = DIRECTION ( 'NONE',  ( 4.054589356604738220E-31, 1.000000000000000000, 1.141265444721592386E-16 ) ) ;
#62 = CC_DESIGN_APPROVAL ( #102, ( #33 ) ) ;
#63 = FACE_OUTER_BOUND ( 'NONE', #198, .T. ) ;
#64 = VERTEX_POINT ( 'NONE', #103 ) ;
#65 = COORDINATED_UNIVERSAL_TIME_OFFSET ( 1, 0, .AHEAD. ) ;
#66 = DIRECTION ( 'NONE',  ( 4.275831445896958607E-31, 1.000000000000000000, 1.224646799147353207E-16 ) ) ;
#67 = CC_DESIGN_DATE_AND_TIME_ASSIGNMENT ( #97, #2, ( #183 ) ) ;
#68 = APPROVAL_DATE_TIME ( #1, #102 ) ;
#69 = CARTESIAN_POINT ( 'NONE',  ( 9.575086531545317954E-16, 0.4749999999999963141, 0.2742413778650732992 ) ) ;
#70 = ADVANCED_FACE ( 'NONE', ( #87, #174 ), #19, .T. ) ;
#71 = AXIS2_PLACEMENT_3D ( 'NONE', #23, #106, #50 ) ;
#72 = APPROVAL_ROLE ( '' ) ;
#73 = EDGE_LOOP ( 'NONE', ( #14 ) ) ;
#74 = MANIFOLD_SOLID_BREP ( 'Corps-Déplacer/Copier1[1]', #90 ) ;
#75 = PERSON_AND_ORGANIZATION_ROLE ( 'design_supplier' ) ;
#76 = ORIENTED_EDGE ( 'NONE', *, *, #9, .T. ) ;
#77 = CARTESIAN_POINT ( 'NONE',  ( 0.0000000000000000000, 0.0000000000000000000, 0.0000000000000000000 ) ) ;
#78 = AXIS2_PLACEMENT_3D ( 'NONE', #16, #39, #100 ) ;
#79 = LOCAL_TIME ( 11, 22, 54.00000000000000000, #189 ) ;
#80 = APPROVAL_STATUS ( 'not_yet_approved' ) ;
#81 = CARTESIAN_POINT ( 'NONE',  ( 0.0000000000000000000, 0.0000000000000000000, 0.0000000000000000000 ) ) ;
#82 = PERSON_AND_ORGANIZATION ( #163, #114 ) ;
#83 = PERSON_AND_ORGANIZATION_ROLE ( 'creator' ) ;
#84 = CC_DESIGN_PERSON_AND_ORGANIZATION_ASSIGNMENT ( #108, #38, ( #188 ) ) ;
#85 = CARTESIAN_POINT ( 'NONE',  ( 1.043952920314096810E-13, -3.661693929450586610E-15, 29.89999999999999858 ) ) ;
#86 = COORDINATED_UNIVERSAL_TIME_OFFSET ( 1, 0, .AHEAD. ) ;
#87 = FACE_OUTER_BOUND ( 'NONE', #168, .T. ) ;
#88 = APPROVAL ( #110, 'UNSPECIFIED' ) ;
#89 = PLANE ( 'NONE',  #178 ) ;
#90 = CLOSED_SHELL ( 'NONE', ( #150, #70, #128, #51 ) ) ;
#91 = CARTESIAN_POINT ( 'NONE',  ( 1.043952920314096810E-13, 0.4749999999999963141, 29.89999999999999858 ) ) ;
#92 = MECHANICAL_CONTEXT ( 'NONE', #26, 'mechanical' ) ;
#93 = CC_DESIGN_SECURITY_CLASSIFICATION ( #183, ( #144 ) ) ;
#94 = CIRCLE ( 'NONE', #121, 0.4749999999999972022 ) ;
#95 = CC_DESIGN_PERSON_AND_ORGANIZATION_ASSIGNMENT ( #29, #13, ( #183 ) ) ;
#96 = EDGE_LOOP ( 'NONE', ( #45 ) ) ;
#97 = DATE_AND_TIME ( #54, #141 ) ;
#98 = CARTESIAN_POINT ( 'NONE',  ( 1.047444401652940007E-13, 2.812049592490927934E-33, 30.00000000000000000 ) ) ;
#99 = CARTESIAN_POINT ( 'NONE',  ( 2.444036937190193349E-14, -8.572527594031473190E-16, 7.000000000000000000 ) ) ;
#100 = DIRECTION ( 'NONE',  ( -4.275831445896958607E-31, -1.000000000000000000, -1.224646799147353207E-16 ) ) ;
#101 = DIRECTION ( 'NONE',  ( -3.491481338843133355E-15, 1.224646799147353207E-16, -1.000000000000000000 ) ) ;
#102 = APPROVAL ( #80, 'UNSPECIFIED' ) ;
#103 = CARTESIAN_POINT ( 'NONE',  ( 2.444036937190193349E-14, 0.4749999999999963141, 7.000000000000000000 ) ) ;
#104 = AXIS2_PLACEMENT_3D ( 'NONE', #192, #55, #112 ) ;
#105 = DIRECTION ( 'NONE',  ( -4.275831445896958607E-31, -1.000000000000000000, -1.224646799147353207E-16 ) ) ;
#106 = DIRECTION ( 'NONE',  ( 0.0000000000000000000, 0.0000000000000000000, 1.000000000000000000 ) ) ;
#107 = LOCAL_TIME ( 11, 22, 54.00000000000000000, #65 ) ;
#108 = PERSON_AND_ORGANIZATION ( #163, #114 ) ;
#109 = DATE_TIME_ROLE ( 'creation_date' ) ;
#110 = APPROVAL_STATUS ( 'not_yet_approved' ) ;
#111 = EDGE_CURVE ( 'NONE', #154, #154, #94, .T. ) ;
#112 = DIRECTION ( 'NONE',  ( -4.054589356604738220E-31, -1.000000000000000000, -1.141265444721592386E-16 ) ) ;
#113 = ORIENTED_EDGE ( 'NONE', *, *, #111, .F. ) ;
#114 = ORGANIZATION ( 'UNSPECIFIED', 'UNSPECIFIED', '' ) ;
#115 = AXIS2_PLACEMENT_3D ( 'NONE', #99, #180, #120 ) ;
#116 = EDGE_LOOP ( 'NONE', ( #76 ) ) ;
#117 = SECURITY_CLASSIFICATION_LEVEL ( 'unclassified' ) ;
#118 = PRODUCT_RELATED_PRODUCT_CATEGORY ( 'detail', '', ( #188 ) ) ;
#119 = SHAPE_DEFINITION_REPRESENTATION ( #18, #44 ) ;
#120 = DIRECTION ( 'NONE',  ( 0.0000000000000000000, 1.000000000000000000, 0.0000000000000000000 ) ) ;
#121 = AXIS2_PLACEMENT_3D ( 'NONE', #125, #49, #185 ) ;
#122 = CIRCLE ( 'NONE', #7, 0.3750000000000000000 ) ;
#123 = CALENDAR_DATE ( 2021, 6, 10 ) ;
#124 = FACE_OUTER_BOUND ( 'NONE', #116, .T. ) ;
#125 = CARTESIAN_POINT ( 'NONE',  ( 2.444036937190193349E-14, -8.572527594031473190E-16, 7.000000000000000000 ) ) ;
#126 = EDGE_CURVE ( 'NONE', #159, #159, #22, .T. ) ;
#127 = PERSON_AND_ORGANIZATION ( #163, #114 ) ;
#128 = ADVANCED_FACE ( 'NONE', ( #202, #139 ), #136, .T. ) ;
#129 = PERSON_AND_ORGANIZATION ( #163, #114 ) ;
#130 = AXIS2_PLACEMENT_3D ( 'NONE', #77, #101, #135 ) ;
#131 = PERSON_AND_ORGANIZATION_ROLE ( 'creator' ) ;
#132 = CALENDAR_DATE ( 2021, 6, 10 ) ;
#133 =( NAMED_UNIT ( * ) PLANE_ANGLE_UNIT ( ) SI_UNIT ( $, .RADIAN. ) );
#134 = CARTESIAN_POINT ( 'NONE',  ( 1.047444401652940007E-13, -3.673940397442059178E-15, 30.00000000000000000 ) ) ;
#135 = DIRECTION ( 'NONE',  ( 4.275831445896958607E-31, 1.000000000000000000, 1.224646799147352961E-16 ) ) ;
#136 = CONICAL_SURFACE ( 'NONE', #52, 0.3750000000000000000, 0.7853981633974512766 ) ;
#137 = CC_DESIGN_APPROVAL ( #88, ( #183 ) ) ;
#138 = APPLICATION_PROTOCOL_DEFINITION ( 'international standard', 'config_control_design', 1994, #26 ) ;
#139 = FACE_BOUND ( 'NONE', #148, .T. ) ;
#140 = PERSON_AND_ORGANIZATION ( #163, #114 ) ;
#141 = LOCAL_TIME ( 11, 22, 54.00000000000000000, #25 ) ;
#142 = PERSON_AND_ORGANIZATION ( #163, #114 ) ;
#143 = PLANE ( 'NONE',  #175 ) ;
#144 = PRODUCT_DEFINITION_FORMATION_WITH_SPECIFIED_SOURCE ( 'ANY', '', #188, .NOT_KNOWN. ) ;
#145 = MANIFOLD_SOLID_BREP ( 'Corps-Déplacer/Copier1[2]', #3 ) ;
#146 = DIRECTION ( 'NONE',  ( -3.491481338843133355E-15, 1.224646799147353207E-16, -1.000000000000000000 ) ) ;
#147 = APPROVAL_ROLE ( '' ) ;
#148 = EDGE_LOOP ( 'NONE', ( #58 ) ) ;
#149 = PLANE ( 'NONE',  #78 ) ;
#150 = ADVANCED_FACE ( 'NONE', ( #124 ), #149, .F. ) ;
#151 = CARTESIAN_POINT ( 'NONE',  ( 2.444036937190193349E-14, 3.561929483821878291E-33, 7.000000000000000000 ) ) ;
#152 = CARTESIAN_POINT ( 'NONE',  ( 1.047444401652940007E-13, -3.673940397442059178E-15, 30.00000000000000000 ) ) ;
#153 = APPLICATION_PROTOCOL_DEFINITION ( 'international standard', 'config_control_design', 1994, #42 ) ;
#154 = VERTEX_POINT ( 'NONE', #157 ) ;
#155 = DIRECTION ( 'NONE',  ( -3.491481338843133355E-15, 1.224646799147353207E-16, -1.000000000000000000 ) ) ;
#156 = ADVANCED_FACE ( 'NONE', ( #186, #63 ), #171, .T. ) ;
#157 = CARTESIAN_POINT ( 'NONE',  ( 2.444036937190193349E-14, 0.4749999999999963141, 7.000000000000000000 ) ) ;
#158 = APPROVAL_PERSON_ORGANIZATION ( #140, #102, #201 ) ;
#159 = VERTEX_POINT ( 'NONE', #69 ) ;
#160 = VERTEX_POINT ( 'NONE', #35 ) ;
#161 = CALENDAR_DATE ( 2021, 6, 10 ) ;
#162 = DESIGN_CONTEXT ( 'detailed design', #42, 'design' ) ;
#163 = PERSON ( 'UNSPECIFIED', 'UNSPECIFIED', 'UNSPECIFIED', ('UNSPECIFIED'), ('UNSPECIFIED'), ('UNSPECIFIED') ) ;
#164 = PERSON_AND_ORGANIZATION ( #163, #114 ) ;
#165 = ADVANCED_FACE ( 'NONE', ( #37 ), #89, .T. ) ;
#166 = APPROVAL_PERSON_ORGANIZATION ( #129, #20, #72 ) ;
#167 = COORDINATED_UNIVERSAL_TIME_OFFSET ( 1, 0, .AHEAD. ) ;
#168 = EDGE_LOOP ( 'NONE', ( #195 ) ) ;
#169 = VERTEX_POINT ( 'NONE', #91 ) ;
#170 = ORIENTED_EDGE ( 'NONE', *, *, #48, .F. ) ;
#171 = CYLINDRICAL_SURFACE ( 'NONE', #130, 0.4749999999999968137 ) ;
#172 =( LENGTH_UNIT ( ) NAMED_UNIT ( * ) SI_UNIT ( .MILLI., .METRE. ) );
#173 = DIRECTION ( 'NONE',  ( -3.491481338843133355E-15, 1.224646799147353207E-16, -1.000000000000000000 ) ) ;
#174 = FACE_OUTER_BOUND ( 'NONE', #73, .T. ) ;
#175 = AXIS2_PLACEMENT_3D ( 'NONE', #98, #155, #66 ) ;
#176 = CC_DESIGN_PERSON_AND_ORGANIZATION_ASSIGNMENT ( #127, #131, ( #33 ) ) ;
#177 = LOCAL_TIME ( 11, 22, 54.00000000000000000, #86 ) ;
#178 = AXIS2_PLACEMENT_3D ( 'NONE', #151, #17, #105 ) ;
#179 = UNCERTAINTY_MEASURE_WITH_UNIT (LENGTH_MEASURE( 1.000000000000000082E-05 ), #172, 'distance_accuracy_value', 'NONE');
#180 = DIRECTION ( 'NONE',  ( -3.491481338843133355E-15, 1.224646799147353207E-16, -1.000000000000000000 ) ) ;
#181 = ORIENTED_EDGE ( 'NONE', *, *, #190, .F. ) ;
#182 = AXIS2_PLACEMENT_3D ( 'NONE', #85, #146, #11 ) ;
#183 = SECURITY_CLASSIFICATION ( '', '', #117 ) ;
#184 = DIRECTION ( 'NONE',  ( -3.491481338843133355E-15, 1.224646799147353207E-16, -1.000000000000000000 ) ) ;
#185 = DIRECTION ( 'NONE',  ( 0.0000000000000000000, 1.000000000000000000, 0.0000000000000000000 ) ) ;
#186 = FACE_OUTER_BOUND ( 'NONE', #194, .T. ) ;
#187 = APPROVAL_PERSON_ORGANIZATION ( #82, #88, #147 ) ;
#188 = PRODUCT ( '53593', '53593', '', ( #92 ) ) ;
#189 = COORDINATED_UNIVERSAL_TIME_OFFSET ( 1, 0, .AHEAD. ) ;
#190 = EDGE_CURVE ( 'NONE', #160, #160, #122, .T. ) ;
#191 = CALENDAR_DATE ( 2021, 6, 10 ) ;
#192 = CARTESIAN_POINT ( 'NONE',  ( 9.575086531545315982E-16, -3.358488255962217269E-17, 0.2742413778650732437 ) ) ;
#193 = CC_DESIGN_PERSON_AND_ORGANIZATION_ASSIGNMENT ( #142, #75, ( #144 ) ) ;
#194 = EDGE_LOOP ( 'NONE', ( #12 ) ) ;
#195 = ORIENTED_EDGE ( 'NONE', *, *, #9, .F. ) ;
#196 = CONICAL_SURFACE ( 'NONE', #104, 0.4749999999999963696, 1.047197551196592746 ) ;
#197 = DATE_AND_TIME ( #132, #177 ) ;
#198 = EDGE_LOOP ( 'NONE', ( #60 ) ) ;
#199 =( GEOMETRIC_REPRESENTATION_CONTEXT ( 3 ) GLOBAL_UNCERTAINTY_ASSIGNED_CONTEXT ( ( #179 ) ) GLOBAL_UNIT_ASSIGNED_CONTEXT ( ( #172, #133, #53 ) ) REPRESENTATION_CONTEXT ( 'NONE', 'WORKASPACE' ) );
#200 = DIRECTION ( 'NONE',  ( 0.0000000000000000000, 1.000000000000000000, 0.0000000000000000000 ) ) ;
#201 = APPROVAL_ROLE ( '' ) ;
#202 = FACE_OUTER_BOUND ( 'NONE', #43, .T. ) ;
#203 = DIRECTION ( 'NONE',  ( 4.275831445896958607E-31, 1.000000000000000000, 1.224646799147353454E-16 ) ) ;
ENDSEC;
END-ISO-10303-21;
