ISO-10303-21;
HEADER;
FILE_DESCRIPTION (( 'STEP AP203' ),
    '1' );
FILE_NAME ('53592.step',
    '2021-10-06T09:22:53',
    ( '' ),
    ( '' ),
    'SwSTEP 2.0',
    'SolidWorks 2019',
    '' );
FILE_SCHEMA (( 'CONFIG_CONTROL_DESIGN' ));
ENDSEC;

DATA;
#1 = DIRECTION ( 'NONE',  ( 3.491481338843133355E-15, -1.224646799147353207E-16, 1.000000000000000000 ) ) ;
#2 = ORGANIZATION ( 'UNSPECIFIED', 'UNSPECIFIED', '' ) ;
#3 = CARTESIAN_POINT ( 'NONE',  ( 9.071134608832398594E-16, -3.181725716174731468E-17, 0.2598076211353324561 ) ) ;
#4 = CARTESIAN_POINT ( 'NONE',  ( 1.047444401652940007E-13, -3.673940397442059178E-15, 30.00000000000000000 ) ) ;
#5 = DIRECTION ( 'NONE',  ( -3.491481338843133355E-15, 1.224646799147353207E-16, -1.000000000000000000 ) ) ;
#6 = APPLICATION_CONTEXT ( 'configuration controlled 3d designs of mechanical parts and assemblies' ) ;
#7 = CC_DESIGN_SECURITY_CLASSIFICATION ( #48, ( #84 ) ) ;
#8 = CALENDAR_DATE ( 2021, 6, 10 ) ;
#9 = AXIS2_PLACEMENT_3D ( 'NONE', #129, #68, #165 ) ;
#10 = DATE_AND_TIME ( #194, #101 ) ;
#11 = PERSON_AND_ORGANIZATION ( #41, #2 ) ;
#12 = DIRECTION ( 'NONE',  ( 4.275831445896958607E-31, 1.000000000000000000, 1.224646799147353207E-16 ) ) ;
#13 = PERSON_AND_ORGANIZATION ( #41, #2 ) ;
#14 = DIRECTION ( 'NONE',  ( 4.275831445896958607E-31, 1.000000000000000000, 1.224646799147353207E-16 ) ) ;
#15 = DIRECTION ( 'NONE',  ( 0.0000000000000000000, 1.000000000000000000, 0.0000000000000000000 ) ) ;
#16 = EDGE_CURVE ( 'NONE', #61, #61, #153, .T. ) ;
#17 =( NAMED_UNIT ( * ) PLANE_ANGLE_UNIT ( ) SI_UNIT ( $, .RADIAN. ) );
#18 = EDGE_LOOP ( 'NONE', ( #20 ) ) ;
#19 = APPROVAL_PERSON_ORGANIZATION ( #57, #81, #39 ) ;
#20 = ORIENTED_EDGE ( 'NONE', *, *, #32, .F. ) ;
#21 = DIRECTION ( 'NONE',  ( 0.0000000000000000000, 1.000000000000000000, 0.0000000000000000000 ) ) ;
#22 = AXIS2_PLACEMENT_3D ( 'NONE', #145, #201, #15 ) ;
#23 = CARTESIAN_POINT ( 'NONE',  ( 2.444036937190193349E-14, -8.572527594031473190E-16, 7.000000000000000000 ) ) ;
#24 = APPROVAL_STATUS ( 'not_yet_approved' ) ;
#25 = COORDINATED_UNIVERSAL_TIME_OFFSET ( 1, 0, .AHEAD. ) ;
#26 = COORDINATED_UNIVERSAL_TIME_OFFSET ( 1, 0, .AHEAD. ) ;
#27 = FACE_OUTER_BOUND ( 'NONE', #74, .T. ) ;
#28 = PERSON_AND_ORGANIZATION_ROLE ( 'classification_officer' ) ;
#29 = APPROVAL ( #139, 'UNSPECIFIED' ) ;
#30 = DATE_TIME_ROLE ( 'classification_date' ) ;
#31 = CIRCLE ( 'NONE', #22, 0.4500000000000000111 ) ;
#32 = EDGE_CURVE ( 'NONE', #130, #130, #43, .T. ) ;
#33 = FACE_OUTER_BOUND ( 'NONE', #134, .T. ) ;
#34 = EDGE_LOOP ( 'NONE', ( #146 ) ) ;
#35 = DIRECTION ( 'NONE',  ( 0.0000000000000000000, 0.0000000000000000000, 1.000000000000000000 ) ) ;
#36 = CC_DESIGN_PERSON_AND_ORGANIZATION_ASSIGNMENT ( #113, #104, ( #152 ) ) ;
#37 = DIRECTION ( 'NONE',  ( 0.0000000000000000000, 1.000000000000000000, 0.0000000000000000000 ) ) ;
#38 = APPLICATION_PROTOCOL_DEFINITION ( 'international standard', 'config_control_design', 1994, #6 ) ;
#39 = APPROVAL_ROLE ( '' ) ;
#40 = DATE_TIME_ROLE ( 'creation_date' ) ;
#41 = PERSON ( 'UNSPECIFIED', 'UNSPECIFIED', 'UNSPECIFIED', ('UNSPECIFIED'), ('UNSPECIFIED'), ('UNSPECIFIED') ) ;
#42 = SECURITY_CLASSIFICATION_LEVEL ( 'unclassified' ) ;
#43 = CIRCLE ( 'NONE', #70, 0.4499999999999963474 ) ;
#44 = ADVANCED_FACE ( 'NONE', ( #83 ), #45, .F. ) ;
#45 = PLANE ( 'NONE',  #64 ) ;
#46 = EDGE_LOOP ( 'NONE', ( #47 ) ) ;
#47 = ORIENTED_EDGE ( 'NONE', *, *, #71, .T. ) ;
#48 = SECURITY_CLASSIFICATION ( '', '', #42 ) ;
#49 = ORIENTED_EDGE ( 'NONE', *, *, #71, .F. ) ;
#50 = CC_DESIGN_DATE_AND_TIME_ASSIGNMENT ( #140, #40, ( #62 ) ) ;
#51 = ORIENTED_EDGE ( 'NONE', *, *, #89, .F. ) ;
#52 = CYLINDRICAL_SURFACE ( 'NONE', #121, 0.4499999999999967359 ) ;
#53 = ADVANCED_FACE ( 'NONE', ( #33, #166 ), #136, .T. ) ;
#54 = CC_DESIGN_DATE_AND_TIME_ASSIGNMENT ( #10, #30, ( #48 ) ) ;
#55 = COORDINATED_UNIVERSAL_TIME_OFFSET ( 1, 0, .AHEAD. ) ;
#56 = PLANE ( 'NONE',  #9 ) ;
#57 = PERSON_AND_ORGANIZATION ( #41, #2 ) ;
#58 = MECHANICAL_CONTEXT ( 'NONE', #198, 'mechanical' ) ;
#59 = CARTESIAN_POINT ( 'NONE',  ( 2.444036937190193349E-14, 0.4499999999999962919, 7.000000000000000000 ) ) ;
#60 = CARTESIAN_POINT ( 'NONE',  ( 9.071134608832398594E-16, -3.181725716174731468E-17, 0.2598076211353324561 ) ) ;
#61 = VERTEX_POINT ( 'NONE', #59 ) ;
#62 = PRODUCT_DEFINITION ( 'UNKNOWN', '', #84, #119 ) ;
#63 =( NAMED_UNIT ( * ) SI_UNIT ( $, .STERADIAN. ) SOLID_ANGLE_UNIT ( ) );
#64 = AXIS2_PLACEMENT_3D ( 'NONE', #150, #1, #65 ) ;
#65 = DIRECTION ( 'NONE',  ( -4.275831445896958607E-31, -1.000000000000000000, -1.224646799147353207E-16 ) ) ;
#66 = ADVANCED_FACE ( 'NONE', ( #27 ), #100, .T. ) ;
#67 = APPROVAL_PERSON_ORGANIZATION ( #11, #29, #170 ) ;
#68 = DIRECTION ( 'NONE',  ( 3.491481338843133355E-15, -1.224646799147353207E-16, 1.000000000000000000 ) ) ;
#69 = APPROVAL ( #24, 'UNSPECIFIED' ) ;
#70 = AXIS2_PLACEMENT_3D ( 'NONE', #60, #116, #131 ) ;
#71 = EDGE_CURVE ( 'NONE', #184, #184, #176, .T. ) ;
#72 = COORDINATED_UNIVERSAL_TIME_OFFSET ( 1, 0, .AHEAD. ) ;
#73 = LOCAL_TIME ( 11, 22, 53.00000000000000000, #55 ) ;
#74 = EDGE_LOOP ( 'NONE', ( #97 ) ) ;
#75 = DATE_AND_TIME ( #182, #200 ) ;
#76 = DIRECTION ( 'NONE',  ( -3.491481338843133355E-15, 1.224646799147353207E-16, -1.000000000000000000 ) ) ;
#77 = PERSON_AND_ORGANIZATION ( #41, #2 ) ;
#78 = VERTEX_POINT ( 'NONE', #186 ) ;
#79 = CONICAL_SURFACE ( 'NONE', #108, 0.3499999999999999778, 0.7853981633974512766 ) ;
#80 = DIRECTION ( 'NONE',  ( -3.491481338843133355E-15, 1.224646799147353207E-16, -1.000000000000000000 ) ) ;
#81 = APPROVAL ( #124, 'UNSPECIFIED' ) ;
#82 = EDGE_LOOP ( 'NONE', ( #160 ) ) ;
#83 = FACE_OUTER_BOUND ( 'NONE', #126, .T. ) ;
#84 = PRODUCT_DEFINITION_FORMATION_WITH_SPECIFIED_SOURCE ( 'ANY', '', #152, .NOT_KNOWN. ) ;
#85 = PLANE ( 'NONE',  #95 ) ;
#86 = FACE_OUTER_BOUND ( 'NONE', #87, .T. ) ;
#87 = EDGE_LOOP ( 'NONE', ( #49 ) ) ;
#88 = APPROVAL_PERSON_ORGANIZATION ( #13, #69, #107 ) ;
#89 = EDGE_CURVE ( 'NONE', #132, #132, #168, .T. ) ;
#90 = DATE_AND_TIME ( #8, #187 ) ;
#91 = CARTESIAN_POINT ( 'NONE',  ( 1.047444401652940007E-13, 2.624579619658195733E-33, 30.00000000000000000 ) ) ;
#92 = COORDINATED_UNIVERSAL_TIME_OFFSET ( 1, 0, .AHEAD. ) ;
#93 = PRODUCT_DEFINITION_SHAPE ( 'NONE', 'NONE',  #62 ) ;
#94 = CARTESIAN_POINT ( 'NONE',  ( 9.071134608832400566E-16, 0.4499999999999962919, 0.2598076211353325116 ) ) ;
#95 = AXIS2_PLACEMENT_3D ( 'NONE', #91, #5, #14 ) ;
#96 = DIRECTION ( 'NONE',  ( -3.491481338843133355E-15, 1.224646799147353207E-16, -1.000000000000000000 ) ) ;
#97 = ORIENTED_EDGE ( 'NONE', *, *, #32, .T. ) ;
#98 = EDGE_LOOP ( 'NONE', ( #155 ) ) ;
#99 =( GEOMETRIC_REPRESENTATION_CONTEXT ( 3 ) GLOBAL_UNCERTAINTY_ASSIGNED_CONTEXT ( ( #188 ) ) GLOBAL_UNIT_ASSIGNED_CONTEXT ( ( #114, #17, #63 ) ) REPRESENTATION_CONTEXT ( 'NONE', 'WORKASPACE' ) );
#100 = CONICAL_SURFACE ( 'NONE', #105, 0.4499999999999963474, 1.047197551196592746 ) ;
#101 = LOCAL_TIME ( 11, 22, 53.00000000000000000, #92 ) ;
#102 = ADVANCED_BREP_SHAPE_REPRESENTATION ( '53592', ( #149, #148, #179 ), #99 ) ;
#103 = FACE_OUTER_BOUND ( 'NONE', #34, .T. ) ;
#104 = PERSON_AND_ORGANIZATION_ROLE ( 'design_owner' ) ;
#105 = AXIS2_PLACEMENT_3D ( 'NONE', #3, #158, #144 ) ;
#106 = APPROVAL_DATE_TIME ( #90, #29 ) ;
#107 = APPROVAL_ROLE ( '' ) ;
#108 = AXIS2_PLACEMENT_3D ( 'NONE', #171, #197, #21 ) ;
#109 = FACE_BOUND ( 'NONE', #46, .T. ) ;
#110 = CC_DESIGN_PERSON_AND_ORGANIZATION_ASSIGNMENT ( #172, #28, ( #48 ) ) ;
#111 = LOCAL_TIME ( 11, 22, 53.00000000000000000, #72 ) ;
#112 = PERSON_AND_ORGANIZATION_ROLE ( 'design_supplier' ) ;
#113 = PERSON_AND_ORGANIZATION ( #41, #2 ) ;
#114 =( LENGTH_UNIT ( ) NAMED_UNIT ( * ) SI_UNIT ( .MILLI., .METRE. ) );
#115 = AXIS2_PLACEMENT_3D ( 'NONE', #23, #189, #142 ) ;
#116 = DIRECTION ( 'NONE',  ( -3.491481338843133355E-15, 1.224646799147353207E-16, -1.000000000000000000 ) ) ;
#117 = CARTESIAN_POINT ( 'NONE',  ( 2.444036937190193349E-14, 0.4499999999999962919, 7.000000000000000000 ) ) ;
#118 = CC_DESIGN_APPROVAL ( #81, ( #84 ) ) ;
#119 = DESIGN_CONTEXT ( 'detailed design', #6, 'design' ) ;
#120 = CARTESIAN_POINT ( 'NONE',  ( 0.0000000000000000000, 0.0000000000000000000, 0.0000000000000000000 ) ) ;
#121 = AXIS2_PLACEMENT_3D ( 'NONE', #122, #96, #163 ) ;
#122 = CARTESIAN_POINT ( 'NONE',  ( 0.0000000000000000000, 0.0000000000000000000, 0.0000000000000000000 ) ) ;
#123 = CLOSED_SHELL ( 'NONE', ( #44, #53, #135, #138 ) ) ;
#124 = APPROVAL_STATUS ( 'not_yet_approved' ) ;
#125 = DIRECTION ( 'NONE',  ( -3.491481338843133355E-15, 1.224646799147353207E-16, -1.000000000000000000 ) ) ;
#126 = EDGE_LOOP ( 'NONE', ( #178 ) ) ;
#127 = PRODUCT_RELATED_PRODUCT_CATEGORY ( 'detail', '', ( #152 ) ) ;
#128 = APPROVAL_DATE_TIME ( #75, #69 ) ;
#129 = CARTESIAN_POINT ( 'NONE',  ( 2.444036937190193349E-14, 3.374459510989145406E-33, 7.000000000000000000 ) ) ;
#130 = VERTEX_POINT ( 'NONE', #94 ) ;
#131 = DIRECTION ( 'NONE',  ( 4.279844320860559053E-31, 1.000000000000000000, 1.204669080539459204E-16 ) ) ;
#132 = VERTEX_POINT ( 'NONE', #117 ) ;
#133 = AXIS2_PLACEMENT_3D ( 'NONE', #4, #125, #37 ) ;
#134 = EDGE_LOOP ( 'NONE', ( #51 ) ) ;
#135 = ADVANCED_FACE ( 'NONE', ( #103, #109 ), #79, .T. ) ;
#136 = CYLINDRICAL_SURFACE ( 'NONE', #199, 0.4499999999999985678 ) ;
#137 = FACE_OUTER_BOUND ( 'NONE', #18, .T. ) ;
#138 = ADVANCED_FACE ( 'NONE', ( #86 ), #85, .F. ) ;
#139 = APPROVAL_STATUS ( 'not_yet_approved' ) ;
#140 = DATE_AND_TIME ( #173, #73 ) ;
#141 = CALENDAR_DATE ( 2021, 6, 10 ) ;
#142 = DIRECTION ( 'NONE',  ( 0.0000000000000000000, 1.000000000000000000, 0.0000000000000000000 ) ) ;
#143 = ADVANCED_FACE ( 'NONE', ( #154 ), #56, .T. ) ;
#144 = DIRECTION ( 'NONE',  ( -4.279844320860559053E-31, -1.000000000000000000, -1.204669080539459204E-16 ) ) ;
#145 = CARTESIAN_POINT ( 'NONE',  ( 1.043952920314096810E-13, -3.661693929450586610E-15, 29.89999999999999858 ) ) ;
#146 = ORIENTED_EDGE ( 'NONE', *, *, #193, .F. ) ;
#147 = APPLICATION_PROTOCOL_DEFINITION ( 'international standard', 'config_control_design', 1994, #198 ) ;
#148 = MANIFOLD_SOLID_BREP ( 'Corps-Déplacer/Copier1[2]', #195 ) ;
#149 = MANIFOLD_SOLID_BREP ( 'Corps-Déplacer/Copier1[1]', #123 ) ;
#150 = CARTESIAN_POINT ( 'NONE',  ( 2.444036937190193349E-14, 3.374459510989145406E-33, 7.000000000000000000 ) ) ;
#151 = CC_DESIGN_PERSON_AND_ORGANIZATION_ASSIGNMENT ( #77, #180, ( #84 ) ) ;
#152 = PRODUCT ( '53592', '53592', '', ( #58 ) ) ;
#153 = CIRCLE ( 'NONE', #159, 0.4499999999999971800 ) ;
#154 = FACE_OUTER_BOUND ( 'NONE', #82, .T. ) ;
#155 = ORIENTED_EDGE ( 'NONE', *, *, #193, .T. ) ;
#156 = PERSON_AND_ORGANIZATION_ROLE ( 'creator' ) ;
#157 = PERSON_AND_ORGANIZATION ( #41, #2 ) ;
#158 = DIRECTION ( 'NONE',  ( 3.491481338843133355E-15, -1.224646799147353207E-16, 1.000000000000000000 ) ) ;
#159 = AXIS2_PLACEMENT_3D ( 'NONE', #162, #80, #203 ) ;
#160 = ORIENTED_EDGE ( 'NONE', *, *, #16, .F. ) ;
#161 = DIRECTION ( 'NONE',  ( 1.000000000000000000, 0.0000000000000000000, 0.0000000000000000000 ) ) ;
#162 = CARTESIAN_POINT ( 'NONE',  ( 2.444036937190193349E-14, -8.572527594031473190E-16, 7.000000000000000000 ) ) ;
#163 = DIRECTION ( 'NONE',  ( 4.275831445896958607E-31, 1.000000000000000000, 1.224646799147352961E-16 ) ) ;
#164 = CC_DESIGN_PERSON_AND_ORGANIZATION_ASSIGNMENT ( #167, #156, ( #62 ) ) ;
#165 = DIRECTION ( 'NONE',  ( -4.275831445896958607E-31, -1.000000000000000000, -1.224646799147353207E-16 ) ) ;
#166 = FACE_OUTER_BOUND ( 'NONE', #98, .T. ) ;
#167 = PERSON_AND_ORGANIZATION ( #41, #2 ) ;
#168 = CIRCLE ( 'NONE', #115, 0.4499999999999971800 ) ;
#169 = CC_DESIGN_APPROVAL ( #69, ( #48 ) ) ;
#170 = APPROVAL_ROLE ( '' ) ;
#171 = CARTESIAN_POINT ( 'NONE',  ( 1.047444401652940007E-13, -3.673940397442059178E-15, 30.00000000000000000 ) ) ;
#172 = PERSON_AND_ORGANIZATION ( #41, #2 ) ;
#173 = CALENDAR_DATE ( 2021, 6, 10 ) ;
#174 = EDGE_LOOP ( 'NONE', ( #185 ) ) ;
#175 = CARTESIAN_POINT ( 'NONE',  ( 1.047444401652940007E-13, 0.3499999999999963141, 30.00000000000000000 ) ) ;
#176 = CIRCLE ( 'NONE', #133, 0.3499999999999999778 ) ;
#177 = ADVANCED_FACE ( 'NONE', ( #137, #190 ), #52, .T. ) ;
#178 = ORIENTED_EDGE ( 'NONE', *, *, #89, .T. ) ;
#179 = AXIS2_PLACEMENT_3D ( 'NONE', #183, #35, #161 ) ;
#180 = PERSON_AND_ORGANIZATION_ROLE ( 'creator' ) ;
#181 = DATE_AND_TIME ( #141, #111 ) ;
#182 = CALENDAR_DATE ( 2021, 6, 10 ) ;
#183 = CARTESIAN_POINT ( 'NONE',  ( 0.0000000000000000000, 0.0000000000000000000, 0.0000000000000000000 ) ) ;
#184 = VERTEX_POINT ( 'NONE', #175 ) ;
#185 = ORIENTED_EDGE ( 'NONE', *, *, #16, .T. ) ;
#186 = CARTESIAN_POINT ( 'NONE',  ( 1.043952920314096810E-13, 0.4499999999999962919, 29.89999999999999858 ) ) ;
#187 = LOCAL_TIME ( 11, 22, 53.00000000000000000, #25 ) ;
#188 = UNCERTAINTY_MEASURE_WITH_UNIT (LENGTH_MEASURE( 1.000000000000000082E-05 ), #114, 'distance_accuracy_value', 'NONE');
#189 = DIRECTION ( 'NONE',  ( -3.491481338843133355E-15, 1.224646799147353207E-16, -1.000000000000000000 ) ) ;
#190 = FACE_OUTER_BOUND ( 'NONE', #174, .T. ) ;
#191 = CC_DESIGN_APPROVAL ( #29, ( #62 ) ) ;
#192 = APPROVAL_DATE_TIME ( #181, #81 ) ;
#193 = EDGE_CURVE ( 'NONE', #78, #78, #31, .T. ) ;
#194 = CALENDAR_DATE ( 2021, 6, 10 ) ;
#195 = CLOSED_SHELL ( 'NONE', ( #66, #177, #143 ) ) ;
#196 = SHAPE_DEFINITION_REPRESENTATION ( #93, #102 ) ;
#197 = DIRECTION ( 'NONE',  ( -3.491481338843133355E-15, 1.224646799147353207E-16, -1.000000000000000000 ) ) ;
#198 = APPLICATION_CONTEXT ( 'configuration controlled 3d designs of mechanical parts and assemblies' ) ;
#199 = AXIS2_PLACEMENT_3D ( 'NONE', #120, #76, #12 ) ;
#200 = LOCAL_TIME ( 11, 22, 53.00000000000000000, #26 ) ;
#201 = DIRECTION ( 'NONE',  ( -3.491481338843133355E-15, 1.224646799147353207E-16, -1.000000000000000000 ) ) ;
#202 = CC_DESIGN_PERSON_AND_ORGANIZATION_ASSIGNMENT ( #157, #112, ( #84 ) ) ;
#203 = DIRECTION ( 'NONE',  ( 0.0000000000000000000, 1.000000000000000000, 0.0000000000000000000 ) ) ;
ENDSEC;
END-ISO-10303-21;
