ISO-10303-21;
HEADER;
FILE_DESCRIPTION (( 'STEP AP203' ),
    '1' );
FILE_NAME ('53591.step',
    '2021-10-06T09:22:53',
    ( '' ),
    ( '' ),
    'SwSTEP 2.0',
    'SolidWorks 2019',
    '' );
FILE_SCHEMA (( 'CONFIG_CONTROL_DESIGN' ));
ENDSEC;

DATA;
#1 = CC_DESIGN_PERSON_AND_ORGANIZATION_ASSIGNMENT ( #31, #126, ( #61 ) ) ;
#2 = DIRECTION ( 'NONE',  ( -3.491481338843133355E-15, 1.224646799147353207E-16, -1.000000000000000000 ) ) ;
#3 = APPROVAL_PERSON_ORGANIZATION ( #60, #127, #171 ) ;
#4 = CARTESIAN_POINT ( 'NONE',  ( 0.0000000000000000000, 0.0000000000000000000, 0.0000000000000000000 ) ) ;
#5 = DIRECTION ( 'NONE',  ( -4.531599869146476816E-31, -1.000000000000000000, -1.275531967630016339E-16 ) ) ;
#6 = CARTESIAN_POINT ( 'NONE',  ( 2.444036937190193349E-14, 3.186989538156413205E-33, 7.000000000000000000 ) ) ;
#7 = CC_DESIGN_DATE_AND_TIME_ASSIGNMENT ( #57, #58, ( #174 ) ) ;
#8 = CONICAL_SURFACE ( 'NONE', #175, 0.4249999999999963252, 1.047197551196592746 ) ;
#9 = FACE_OUTER_BOUND ( 'NONE', #180, .T. ) ;
#10 = DIRECTION ( 'NONE',  ( 3.491481338843133355E-15, -1.224646799147353207E-16, 1.000000000000000000 ) ) ;
#11 = DIRECTION ( 'NONE',  ( -3.491481338843133355E-15, 1.224646799147353207E-16, -1.000000000000000000 ) ) ;
#12 = DIRECTION ( 'NONE',  ( 4.275831445896958607E-31, 1.000000000000000000, 1.224646799147353207E-16 ) ) ;
#13 = EDGE_CURVE ( 'NONE', #100, #100, #159, .T. ) ;
#14 = ORIENTED_EDGE ( 'NONE', *, *, #13, .F. ) ;
#15 = FACE_BOUND ( 'NONE', #182, .T. ) ;
#16 = MANIFOLD_SOLID_BREP ( 'Corps-Déplacer/Copier1[2]', #44 ) ;
#17 = DATE_AND_TIME ( #161, #121 ) ;
#18 = DATE_AND_TIME ( #199, #164 ) ;
#19 = ADVANCED_FACE ( 'NONE', ( #9 ), #143, .T. ) ;
#20 = ADVANCED_FACE ( 'NONE', ( #88, #66 ), #53, .T. ) ;
#21 = DIRECTION ( 'NONE',  ( 0.0000000000000000000, 1.000000000000000000, 0.0000000000000000000 ) ) ;
#22 = CC_DESIGN_SECURITY_CLASSIFICATION ( #174, ( #61 ) ) ;
#23 = AXIS2_PLACEMENT_3D ( 'NONE', #155, #169, #81 ) ;
#24 = CARTESIAN_POINT ( 'NONE',  ( 2.444036937190193349E-14, 0.4249999999999962697, 7.000000000000000000 ) ) ;
#25 = DIRECTION ( 'NONE',  ( 4.275831445896958607E-31, 1.000000000000000000, 1.224646799147353207E-16 ) ) ;
#26 = ORGANIZATION ( 'UNSPECIFIED', 'UNSPECIFIED', '' ) ;
#27 = DIRECTION ( 'NONE',  ( -3.491481338843133355E-15, 1.224646799147353207E-16, -1.000000000000000000 ) ) ;
#28 = ORIENTED_EDGE ( 'NONE', *, *, #109, .T. ) ;
#29 = DIRECTION ( 'NONE',  ( -3.491481338843133355E-15, 1.224646799147353207E-16, -1.000000000000000000 ) ) ;
#30 = ORIENTED_EDGE ( 'NONE', *, *, #74, .T. ) ;
#31 = PERSON_AND_ORGANIZATION ( #111, #26 ) ;
#32 = AXIS2_PLACEMENT_3D ( 'NONE', #120, #112, #198 ) ;
#33 = APPROVAL_DATE_TIME ( #17, #90 ) ;
#34 = PERSON_AND_ORGANIZATION ( #111, #26 ) ;
#35 = APPLICATION_CONTEXT ( 'configuration controlled 3d designs of mechanical parts and assemblies' ) ;
#36 = DIRECTION ( 'NONE',  ( -4.275831445896958607E-31, -1.000000000000000000, -1.224646799147353207E-16 ) ) ;
#37 = CIRCLE ( 'NONE', #50, 0.4249999999999971578 ) ;
#38 = EDGE_LOOP ( 'NONE', ( #99 ) ) ;
#39 = LOCAL_TIME ( 11, 22, 53.00000000000000000, #124 ) ;
#40 = ORIENTED_EDGE ( 'NONE', *, *, #54, .T. ) ;
#41 = EDGE_LOOP ( 'NONE', ( #40 ) ) ;
#42 = SECURITY_CLASSIFICATION_LEVEL ( 'unclassified' ) ;
#43 =( NAMED_UNIT ( * ) PLANE_ANGLE_UNIT ( ) SI_UNIT ( $, .RADIAN. ) );
#44 = CLOSED_SHELL ( 'NONE', ( #125, #98, #19 ) ) ;
#45 = CC_DESIGN_PERSON_AND_ORGANIZATION_ASSIGNMENT ( #77, #203, ( #61 ) ) ;
#46 = PERSON_AND_ORGANIZATION_ROLE ( 'creator' ) ;
#47 = DATE_AND_TIME ( #189, #39 ) ;
#48 = LOCAL_TIME ( 11, 22, 53.00000000000000000, #187 ) ;
#49 = DIRECTION ( 'NONE',  ( -3.491481338843133355E-15, 1.224646799147353207E-16, -1.000000000000000000 ) ) ;
#50 = AXIS2_PLACEMENT_3D ( 'NONE', #80, #49, #139 ) ;
#51 = PLANE ( 'NONE',  #68 ) ;
#52 = CARTESIAN_POINT ( 'NONE',  ( 1.047444401652940007E-13, 0.3249999999999962919, 30.00000000000000000 ) ) ;
#53 = CYLINDRICAL_SURFACE ( 'NONE', #117, 0.4249999999999985456 ) ;
#54 = EDGE_CURVE ( 'NONE', #162, #162, #67, .T. ) ;
#55 = APPLICATION_CONTEXT ( 'configuration controlled 3d designs of mechanical parts and assemblies' ) ;
#56 = CARTESIAN_POINT ( 'NONE',  ( 2.444036937190193349E-14, 3.186989538156413205E-33, 7.000000000000000000 ) ) ;
#57 = DATE_AND_TIME ( #75, #158 ) ;
#58 = DATE_TIME_ROLE ( 'classification_date' ) ;
#59 = PERSON_AND_ORGANIZATION_ROLE ( 'design_owner' ) ;
#60 = PERSON_AND_ORGANIZATION ( #111, #26 ) ;
#61 = PRODUCT_DEFINITION_FORMATION_WITH_SPECIFIED_SOURCE ( 'ANY', '', #179, .NOT_KNOWN. ) ;
#62 = COORDINATED_UNIVERSAL_TIME_OFFSET ( 1, 0, .AHEAD. ) ;
#63 = PRODUCT_RELATED_PRODUCT_CATEGORY ( 'detail', '', ( #179 ) ) ;
#64 = AXIS2_PLACEMENT_3D ( 'NONE', #170, #103, #172 ) ;
#65 = CARTESIAN_POINT ( 'NONE',  ( 1.043952920314096810E-13, 0.4249999999999962697, 29.89999999999999858 ) ) ;
#66 = FACE_OUTER_BOUND ( 'NONE', #166, .T. ) ;
#67 = CIRCLE ( 'NONE', #102, 0.4249999999999971578 ) ;
#68 = AXIS2_PLACEMENT_3D ( 'NONE', #142, #110, #25 ) ;
#69 = DIRECTION ( 'NONE',  ( -4.275831445896958607E-31, -1.000000000000000000, -1.224646799147353207E-16 ) ) ;
#70 = DIRECTION ( 'NONE',  ( 4.275831445896958607E-31, 1.000000000000000000, 1.224646799147353207E-16 ) ) ;
#71 = SHAPE_DEFINITION_REPRESENTATION ( #144, #101 ) ;
#72 = CARTESIAN_POINT ( 'NONE',  ( 2.444036937190193349E-14, 0.4249999999999962697, 7.000000000000000000 ) ) ;
#73 = ADVANCED_FACE ( 'NONE', ( #128 ), #51, .F. ) ;
#74 = EDGE_CURVE ( 'NONE', #131, #131, #37, .T. ) ;
#75 = CALENDAR_DATE ( 2021, 6, 10 ) ;
#76 = PERSON_AND_ORGANIZATION_ROLE ( 'classification_officer' ) ;
#77 = PERSON_AND_ORGANIZATION ( #111, #26 ) ;
#78 = PRODUCT_DEFINITION ( 'UNKNOWN', '', #61, #163 ) ;
#79 = MANIFOLD_SOLID_BREP ( 'Corps-Déplacer/Copier1[1]', #129 ) ;
#80 = CARTESIAN_POINT ( 'NONE',  ( 2.444036937190193349E-14, -8.572527594031473190E-16, 7.000000000000000000 ) ) ;
#81 = DIRECTION ( 'NONE',  ( 0.0000000000000000000, 1.000000000000000000, 0.0000000000000000000 ) ) ;
#82 = PLANE ( 'NONE',  #176 ) ;
#83 = EDGE_LOOP ( 'NONE', ( #28 ) ) ;
#84 = ORIENTED_EDGE ( 'NONE', *, *, #95, .F. ) ;
#85 = ORIENTED_EDGE ( 'NONE', *, *, #109, .F. ) ;
#86 = CARTESIAN_POINT ( 'NONE',  ( 2.444036937190193349E-14, -8.572527594031473190E-16, 7.000000000000000000 ) ) ;
#87 = FACE_OUTER_BOUND ( 'NONE', #178, .T. ) ;
#88 = FACE_OUTER_BOUND ( 'NONE', #38, .T. ) ;
#89 = PERSON_AND_ORGANIZATION ( #111, #26 ) ;
#90 = APPROVAL ( #157, 'UNSPECIFIED' ) ;
#91 = CC_DESIGN_APPROVAL ( #94, ( #78 ) ) ;
#92 = PERSON_AND_ORGANIZATION ( #111, #26 ) ;
#93 = APPROVAL_DATE_TIME ( #47, #127 ) ;
#94 = APPROVAL ( #202, 'UNSPECIFIED' ) ;
#95 = EDGE_CURVE ( 'NONE', #193, #193, #97, .T. ) ;
#96 = CARTESIAN_POINT ( 'NONE',  ( 8.567182686119486137E-16, -3.004963176387245051E-17, 0.2453738644055916684 ) ) ;
#97 = CIRCLE ( 'NONE', #23, 0.3250000000000000111 ) ;
#98 = ADVANCED_FACE ( 'NONE', ( #87, #141 ), #148, .T. ) ;
#99 = ORIENTED_EDGE ( 'NONE', *, *, #74, .F. ) ;
#100 = VERTEX_POINT ( 'NONE', #65 ) ;
#101 = ADVANCED_BREP_SHAPE_REPRESENTATION ( '53591', ( #79, #16, #64 ), #153 ) ;
#102 = AXIS2_PLACEMENT_3D ( 'NONE', #86, #11, #21 ) ;
#103 = DIRECTION ( 'NONE',  ( 0.0000000000000000000, 0.0000000000000000000, 1.000000000000000000 ) ) ;
#104 = PERSON_AND_ORGANIZATION ( #111, #26 ) ;
#105 = DATE_AND_TIME ( #137, #48 ) ;
#106 = CC_DESIGN_APPROVAL ( #90, ( #174 ) ) ;
#107 = APPLICATION_PROTOCOL_DEFINITION ( 'international standard', 'config_control_design', 1994, #55 ) ;
#108 = CC_DESIGN_PERSON_AND_ORGANIZATION_ASSIGNMENT ( #89, #76, ( #174 ) ) ;
#109 = EDGE_CURVE ( 'NONE', #134, #134, #185, .T. ) ;
#110 = DIRECTION ( 'NONE',  ( -3.491481338843133355E-15, 1.224646799147353207E-16, -1.000000000000000000 ) ) ;
#111 = PERSON ( 'UNSPECIFIED', 'UNSPECIFIED', 'UNSPECIFIED', ('UNSPECIFIED'), ('UNSPECIFIED'), ('UNSPECIFIED') ) ;
#112 = DIRECTION ( 'NONE',  ( -3.491481338843133355E-15, 1.224646799147353207E-16, -1.000000000000000000 ) ) ;
#113 = DIRECTION ( 'NONE',  ( 0.0000000000000000000, 1.000000000000000000, 0.0000000000000000000 ) ) ;
#114 = ADVANCED_FACE ( 'NONE', ( #130 ), #82, .F. ) ;
#115 = CARTESIAN_POINT ( 'NONE',  ( 0.0000000000000000000, 0.0000000000000000000, 0.0000000000000000000 ) ) ;
#116 = ORIENTED_EDGE ( 'NONE', *, *, #54, .F. ) ;
#117 = AXIS2_PLACEMENT_3D ( 'NONE', #115, #29, #70 ) ;
#118 = EDGE_LOOP ( 'NONE', ( #30 ) ) ;
#119 = DIRECTION ( 'NONE',  ( 3.491481338843133355E-15, -1.224646799147353207E-16, 1.000000000000000000 ) ) ;
#120 = CARTESIAN_POINT ( 'NONE',  ( 8.567182686119486137E-16, -3.004963176387245051E-17, 0.2453738644055916684 ) ) ;
#121 = LOCAL_TIME ( 11, 22, 53.00000000000000000, #62 ) ;
#122 = APPROVAL_PERSON_ORGANIZATION ( #104, #90, #160 ) ;
#123 = COORDINATED_UNIVERSAL_TIME_OFFSET ( 1, 0, .AHEAD. ) ;
#124 = COORDINATED_UNIVERSAL_TIME_OFFSET ( 1, 0, .AHEAD. ) ;
#125 = ADVANCED_FACE ( 'NONE', ( #132 ), #8, .T. ) ;
#126 = PERSON_AND_ORGANIZATION_ROLE ( 'design_supplier' ) ;
#127 = APPROVAL ( #200, 'UNSPECIFIED' ) ;
#128 = FACE_OUTER_BOUND ( 'NONE', #168, .T. ) ;
#129 = CLOSED_SHELL ( 'NONE', ( #114, #20, #138, #73 ) ) ;
#130 = FACE_OUTER_BOUND ( 'NONE', #118, .T. ) ;
#131 = VERTEX_POINT ( 'NONE', #72 ) ;
#132 = FACE_OUTER_BOUND ( 'NONE', #83, .T. ) ;
#133 = ORIENTED_EDGE ( 'NONE', *, *, #13, .T. ) ;
#134 = VERTEX_POINT ( 'NONE', #184 ) ;
#135 =( NAMED_UNIT ( * ) SI_UNIT ( $, .STERADIAN. ) SOLID_ANGLE_UNIT ( ) );
#136 = COORDINATED_UNIVERSAL_TIME_OFFSET ( 1, 0, .AHEAD. ) ;
#137 = CALENDAR_DATE ( 2021, 6, 10 ) ;
#138 = ADVANCED_FACE ( 'NONE', ( #177, #15 ), #149, .T. ) ;
#139 = DIRECTION ( 'NONE',  ( 0.0000000000000000000, 1.000000000000000000, 0.0000000000000000000 ) ) ;
#140 = AXIS2_PLACEMENT_3D ( 'NONE', #4, #2, #12 ) ;
#141 = FACE_OUTER_BOUND ( 'NONE', #41, .T. ) ;
#142 = CARTESIAN_POINT ( 'NONE',  ( 1.047444401652940007E-13, 2.437109646825463190E-33, 30.00000000000000000 ) ) ;
#143 = PLANE ( 'NONE',  #194 ) ;
#144 = PRODUCT_DEFINITION_SHAPE ( 'NONE', 'NONE',  #78 ) ;
#145 = DIRECTION ( 'NONE',  ( -3.491481338843133355E-15, 1.224646799147353207E-16, -1.000000000000000000 ) ) ;
#146 = DIRECTION ( 'NONE',  ( 0.0000000000000000000, 1.000000000000000000, 0.0000000000000000000 ) ) ;
#147 = CC_DESIGN_PERSON_AND_ORGANIZATION_ASSIGNMENT ( #92, #59, ( #179 ) ) ;
#148 = CYLINDRICAL_SURFACE ( 'NONE', #140, 0.4249999999999967693 ) ;
#149 = CONICAL_SURFACE ( 'NONE', #196, 0.3250000000000000111, 0.7853981633974512766 ) ;
#150 = MECHANICAL_CONTEXT ( 'NONE', #55, 'mechanical' ) ;
#151 =( LENGTH_UNIT ( ) NAMED_UNIT ( * ) SI_UNIT ( .MILLI., .METRE. ) );
#152 = APPLICATION_PROTOCOL_DEFINITION ( 'international standard', 'config_control_design', 1994, #35 ) ;
#153 =( GEOMETRIC_REPRESENTATION_CONTEXT ( 3 ) GLOBAL_UNCERTAINTY_ASSIGNED_CONTEXT ( ( #191 ) ) GLOBAL_UNIT_ASSIGNED_CONTEXT ( ( #151, #43, #135 ) ) REPRESENTATION_CONTEXT ( 'NONE', 'WORKASPACE' ) );
#154 = PERSON_AND_ORGANIZATION ( #111, #26 ) ;
#155 = CARTESIAN_POINT ( 'NONE',  ( 1.047444401652940007E-13, -3.673940397442059178E-15, 30.00000000000000000 ) ) ;
#156 = APPROVAL_ROLE ( '' ) ;
#157 = APPROVAL_STATUS ( 'not_yet_approved' ) ;
#158 = LOCAL_TIME ( 11, 22, 53.00000000000000000, #136 ) ;
#159 = CIRCLE ( 'NONE', #201, 0.4249999999999999889 ) ;
#160 = APPROVAL_ROLE ( '' ) ;
#161 = CALENDAR_DATE ( 2021, 6, 10 ) ;
#162 = VERTEX_POINT ( 'NONE', #24 ) ;
#163 = DESIGN_CONTEXT ( 'detailed design', #35, 'design' ) ;
#164 = LOCAL_TIME ( 11, 22, 53.00000000000000000, #123 ) ;
#165 = CARTESIAN_POINT ( 'NONE',  ( 1.047444401652940007E-13, -3.673940397442059178E-15, 30.00000000000000000 ) ) ;
#166 = EDGE_LOOP ( 'NONE', ( #133 ) ) ;
#167 = EDGE_LOOP ( 'NONE', ( #14 ) ) ;
#168 = EDGE_LOOP ( 'NONE', ( #84 ) ) ;
#169 = DIRECTION ( 'NONE',  ( -3.491481338843133355E-15, 1.224646799147353207E-16, -1.000000000000000000 ) ) ;
#170 = CARTESIAN_POINT ( 'NONE',  ( 0.0000000000000000000, 0.0000000000000000000, 0.0000000000000000000 ) ) ;
#171 = APPROVAL_ROLE ( '' ) ;
#172 = DIRECTION ( 'NONE',  ( 1.000000000000000000, 0.0000000000000000000, 0.0000000000000000000 ) ) ;
#173 = DATE_TIME_ROLE ( 'creation_date' ) ;
#174 = SECURITY_CLASSIFICATION ( '', '', #42 ) ;
#175 = AXIS2_PLACEMENT_3D ( 'NONE', #96, #119, #5 ) ;
#176 = AXIS2_PLACEMENT_3D ( 'NONE', #56, #192, #36 ) ;
#177 = FACE_OUTER_BOUND ( 'NONE', #167, .T. ) ;
#178 = EDGE_LOOP ( 'NONE', ( #85 ) ) ;
#179 = PRODUCT ( '53591', '53591', '', ( #150 ) ) ;
#180 = EDGE_LOOP ( 'NONE', ( #116 ) ) ;
#181 = APPROVAL_PERSON_ORGANIZATION ( #154, #94, #156 ) ;
#182 = EDGE_LOOP ( 'NONE', ( #197 ) ) ;
#183 = CC_DESIGN_DATE_AND_TIME_ASSIGNMENT ( #105, #173, ( #78 ) ) ;
#184 = CARTESIAN_POINT ( 'NONE',  ( 8.567182686119488109E-16, 0.4249999999999962697, 0.2453738644055917240 ) ) ;
#185 = CIRCLE ( 'NONE', #32, 0.4249999999999963252 ) ;
#186 = CC_DESIGN_APPROVAL ( #127, ( #61 ) ) ;
#187 = COORDINATED_UNIVERSAL_TIME_OFFSET ( 1, 0, .AHEAD. ) ;
#188 = APPROVAL_DATE_TIME ( #18, #94 ) ;
#189 = CALENDAR_DATE ( 2021, 6, 10 ) ;
#190 = CC_DESIGN_PERSON_AND_ORGANIZATION_ASSIGNMENT ( #34, #46, ( #78 ) ) ;
#191 = UNCERTAINTY_MEASURE_WITH_UNIT (LENGTH_MEASURE( 1.000000000000000082E-05 ), #151, 'distance_accuracy_value', 'NONE');
#192 = DIRECTION ( 'NONE',  ( 3.491481338843133355E-15, -1.224646799147353207E-16, 1.000000000000000000 ) ) ;
#193 = VERTEX_POINT ( 'NONE', #52 ) ;
#194 = AXIS2_PLACEMENT_3D ( 'NONE', #6, #10, #69 ) ;
#195 = CARTESIAN_POINT ( 'NONE',  ( 1.043952920314096810E-13, -3.661693929450586610E-15, 29.89999999999999858 ) ) ;
#196 = AXIS2_PLACEMENT_3D ( 'NONE', #165, #27, #113 ) ;
#197 = ORIENTED_EDGE ( 'NONE', *, *, #95, .T. ) ;
#198 = DIRECTION ( 'NONE',  ( 4.531599869146476816E-31, 1.000000000000000000, 1.275531967630016339E-16 ) ) ;
#199 = CALENDAR_DATE ( 2021, 6, 10 ) ;
#200 = APPROVAL_STATUS ( 'not_yet_approved' ) ;
#201 = AXIS2_PLACEMENT_3D ( 'NONE', #195, #145, #146 ) ;
#202 = APPROVAL_STATUS ( 'not_yet_approved' ) ;
#203 = PERSON_AND_ORGANIZATION_ROLE ( 'creator' ) ;
ENDSEC;
END-ISO-10303-21;
