ISO-10303-21;
HEADER;
FILE_DESCRIPTION (( 'STEP AP203' ),
    '1' );
FILE_NAME ('53590.step',
    '2021-10-06T09:22:52',
    ( '' ),
    ( '' ),
    'SwSTEP 2.0',
    'SolidWorks 2019',
    '' );
FILE_SCHEMA (( 'CONFIG_CONTROL_DESIGN' ));
ENDSEC;

DATA;
#1 = DIRECTION ( 'NONE',  ( -3.491481338843133355E-15, 1.224646799147353207E-16, -1.000000000000000000 ) ) ;
#2 = DATE_TIME_ROLE ( 'creation_date' ) ;
#3 = COORDINATED_UNIVERSAL_TIME_OFFSET ( 1, 0, .AHEAD. ) ;
#4 = MANIFOLD_SOLID_BREP ( 'Corps-Déplacer/Copier1[1]', #152 ) ;
#5 = EDGE_CURVE ( 'NONE', #141, #141, #199, .T. ) ;
#6 = FACE_OUTER_BOUND ( 'NONE', #113, .T. ) ;
#7 = FACE_OUTER_BOUND ( 'NONE', #100, .T. ) ;
#8 = CARTESIAN_POINT ( 'NONE',  ( 8.063230763406571707E-16, -2.828200636599758634E-17, 0.2309401076758508531 ) ) ;
#9 = ORIENTED_EDGE ( 'NONE', *, *, #50, .F. ) ;
#10 = CLOSED_SHELL ( 'NONE', ( #135, #107, #194 ) ) ;
#11 = APPLICATION_CONTEXT ( 'configuration controlled 3d designs of mechanical parts and assemblies' ) ;
#12 = CC_DESIGN_PERSON_AND_ORGANIZATION_ASSIGNMENT ( #73, #146, ( #176 ) ) ;
#13 = CARTESIAN_POINT ( 'NONE',  ( 1.047444401652940007E-13, 0.2999999999999963807, 30.00000000000000000 ) ) ;
#14 = COORDINATED_UNIVERSAL_TIME_OFFSET ( 1, 0, .AHEAD. ) ;
#15 = CARTESIAN_POINT ( 'NONE',  ( 1.047444401652940007E-13, -3.673940397442059178E-15, 30.00000000000000000 ) ) ;
#16 = PERSON_AND_ORGANIZATION ( #193, #171 ) ;
#17 = PERSON_AND_ORGANIZATION ( #193, #171 ) ;
#18 = AXIS2_PLACEMENT_3D ( 'NONE', #33, #128, #51 ) ;
#19 = PRODUCT_DEFINITION_SHAPE ( 'NONE', 'NONE',  #71 ) ;
#20 = CC_DESIGN_DATE_AND_TIME_ASSIGNMENT ( #38, #166, ( #176 ) ) ;
#21 = APPLICATION_CONTEXT ( 'configuration controlled 3d designs of mechanical parts and assemblies' ) ;
#22 = DIRECTION ( 'NONE',  ( -3.491481338843133355E-15, 1.224646799147353207E-16, -1.000000000000000000 ) ) ;
#23 = CARTESIAN_POINT ( 'NONE',  ( 0.0000000000000000000, 0.0000000000000000000, 0.0000000000000000000 ) ) ;
#24 = APPLICATION_PROTOCOL_DEFINITION ( 'international standard', 'config_control_design', 1994, #21 ) ;
#25 = CC_DESIGN_DATE_AND_TIME_ASSIGNMENT ( #120, #2, ( #71 ) ) ;
#26 = ORIENTED_EDGE ( 'NONE', *, *, #144, .F. ) ;
#27 = APPLICATION_PROTOCOL_DEFINITION ( 'international standard', 'config_control_design', 1994, #11 ) ;
#28 = FACE_OUTER_BOUND ( 'NONE', #65, .T. ) ;
#29 = EDGE_LOOP ( 'NONE', ( #174 ) ) ;
#30 = CALENDAR_DATE ( 2021, 6, 10 ) ;
#31 = AXIS2_PLACEMENT_3D ( 'NONE', #149, #54, #87 ) ;
#32 = VERTEX_POINT ( 'NONE', #13 ) ;
#33 = CARTESIAN_POINT ( 'NONE',  ( 2.444036937190193349E-14, -8.572527594031473190E-16, 7.000000000000000000 ) ) ;
#34 = APPROVAL ( #137, 'UNSPECIFIED' ) ;
#35 = PERSON_AND_ORGANIZATION ( #193, #171 ) ;
#36 = APPROVAL_DATE_TIME ( #85, #34 ) ;
#37 = APPROVAL_DATE_TIME ( #180, #130 ) ;
#38 = DATE_AND_TIME ( #134, #117 ) ;
#39 = SECURITY_CLASSIFICATION_LEVEL ( 'unclassified' ) ;
#40 = AXIS2_PLACEMENT_3D ( 'NONE', #189, #170, #61 ) ;
#41 = FACE_OUTER_BOUND ( 'NONE', #47, .T. ) ;
#42 = DIRECTION ( 'NONE',  ( -4.814824860968132547E-31, -1.000000000000000000, -1.355252715606892622E-16 ) ) ;
#43 = CARTESIAN_POINT ( 'NONE',  ( 0.0000000000000000000, 0.0000000000000000000, 0.0000000000000000000 ) ) ;
#44 = CIRCLE ( 'NONE', #40, 0.3999999999999964140 ) ;
#45 = DIRECTION ( 'NONE',  ( -3.491481338843133355E-15, 1.224646799147353207E-16, -1.000000000000000000 ) ) ;
#46 =( NAMED_UNIT ( * ) PLANE_ANGLE_UNIT ( ) SI_UNIT ( $, .RADIAN. ) );
#47 = EDGE_LOOP ( 'NONE', ( #97 ) ) ;
#48 =( NAMED_UNIT ( * ) SI_UNIT ( $, .STERADIAN. ) SOLID_ANGLE_UNIT ( ) );
#49 = CARTESIAN_POINT ( 'NONE',  ( 2.444036937190193349E-14, 0.3999999999999963585, 7.000000000000000000 ) ) ;
#50 = EDGE_CURVE ( 'NONE', #69, #69, #44, .T. ) ;
#51 = DIRECTION ( 'NONE',  ( 0.0000000000000000000, 1.000000000000000000, 0.0000000000000000000 ) ) ;
#52 = AXIS2_PLACEMENT_3D ( 'NONE', #125, #79, #95 ) ;
#53 = CARTESIAN_POINT ( 'NONE',  ( 1.043952920314096810E-13, 0.3999999999999964140, 29.89999999999999858 ) ) ;
#54 = DIRECTION ( 'NONE',  ( -3.491481338843133355E-15, 1.224646799147353207E-16, -1.000000000000000000 ) ) ;
#55 = AXIS2_PLACEMENT_3D ( 'NONE', #165, #161, #163 ) ;
#56 = FACE_OUTER_BOUND ( 'NONE', #188, .T. ) ;
#57 = COORDINATED_UNIVERSAL_TIME_OFFSET ( 1, 0, .AHEAD. ) ;
#58 = CARTESIAN_POINT ( 'NONE',  ( 2.444036937190193349E-14, 2.999519565323681004E-33, 7.000000000000000000 ) ) ;
#59 = APPROVAL_ROLE ( '' ) ;
#60 = CC_DESIGN_PERSON_AND_ORGANIZATION_ASSIGNMENT ( #90, #184, ( #77 ) ) ;
#61 = DIRECTION ( 'NONE',  ( 4.814824860968132547E-31, 1.000000000000000000, 1.355252715606892622E-16 ) ) ;
#62 = APPROVAL_STATUS ( 'not_yet_approved' ) ;
#63 = APPROVAL ( #62, 'UNSPECIFIED' ) ;
#64 = CARTESIAN_POINT ( 'NONE',  ( 8.063230763406573679E-16, 0.3999999999999963585, 0.2309401076758509086 ) ) ;
#65 = EDGE_LOOP ( 'NONE', ( #26 ) ) ;
#66 = PERSON_AND_ORGANIZATION_ROLE ( 'design_owner' ) ;
#67 = CONICAL_SURFACE ( 'NONE', #131, 0.3999999999999964140, 1.047197551196592746 ) ;
#68 = APPROVAL_STATUS ( 'not_yet_approved' ) ;
#69 = VERTEX_POINT ( 'NONE', #64 ) ;
#70 = DIRECTION ( 'NONE',  ( 0.0000000000000000000, 1.000000000000000000, 0.0000000000000000000 ) ) ;
#71 = PRODUCT_DEFINITION ( 'UNKNOWN', '', #77, #167 ) ;
#72 = CIRCLE ( 'NONE', #31, 0.4000000000000000777 ) ;
#73 = PERSON_AND_ORGANIZATION ( #193, #171 ) ;
#74 = CC_DESIGN_PERSON_AND_ORGANIZATION_ASSIGNMENT ( #16, #136, ( #77 ) ) ;
#75 = LOCAL_TIME ( 11, 22, 52.00000000000000000, #14 ) ;
#76 = AXIS2_PLACEMENT_3D ( 'NONE', #58, #183, #91 ) ;
#77 = PRODUCT_DEFINITION_FORMATION_WITH_SPECIFIED_SOURCE ( 'ANY', '', #151, .NOT_KNOWN. ) ;
#78 = PLANE ( 'NONE',  #93 ) ;
#79 = DIRECTION ( 'NONE',  ( -3.491481338843133355E-15, 1.224646799147353207E-16, -1.000000000000000000 ) ) ;
#80 = ORIENTED_EDGE ( 'NONE', *, *, #181, .F. ) ;
#81 = CONICAL_SURFACE ( 'NONE', #89, 0.3000000000000000999, 0.7853981633974512766 ) ;
#82 = DIRECTION ( 'NONE',  ( -4.275831445896958607E-31, -1.000000000000000000, -1.224646799147353207E-16 ) ) ;
#83 = FACE_OUTER_BOUND ( 'NONE', #132, .T. ) ;
#84 = VERTEX_POINT ( 'NONE', #53 ) ;
#85 = DATE_AND_TIME ( #177, #75 ) ;
#86 = APPROVAL_PERSON_ORGANIZATION ( #164, #130, #182 ) ;
#87 = DIRECTION ( 'NONE',  ( 0.0000000000000000000, 1.000000000000000000, 0.0000000000000000000 ) ) ;
#88 = CALENDAR_DATE ( 2021, 6, 10 ) ;
#89 = AXIS2_PLACEMENT_3D ( 'NONE', #15, #1, #133 ) ;
#90 = PERSON_AND_ORGANIZATION ( #193, #171 ) ;
#91 = DIRECTION ( 'NONE',  ( -4.275831445896958607E-31, -1.000000000000000000, -1.224646799147353207E-16 ) ) ;
#92 =( GEOMETRIC_REPRESENTATION_CONTEXT ( 3 ) GLOBAL_UNCERTAINTY_ASSIGNED_CONTEXT ( ( #179 ) ) GLOBAL_UNIT_ASSIGNED_CONTEXT ( ( #190, #46, #48 ) ) REPRESENTATION_CONTEXT ( 'NONE', 'WORKASPACE' ) );
#93 = AXIS2_PLACEMENT_3D ( 'NONE', #155, #124, #153 ) ;
#94 = DIRECTION ( 'NONE',  ( 4.275831445896958607E-31, 1.000000000000000000, 1.224646799147353207E-16 ) ) ;
#95 = DIRECTION ( 'NONE',  ( 4.275831445896958607E-31, 1.000000000000000000, 1.224646799147353207E-16 ) ) ;
#96 = PERSON_AND_ORGANIZATION ( #193, #171 ) ;
#97 = ORIENTED_EDGE ( 'NONE', *, *, #5, .F. ) ;
#98 = PERSON_AND_ORGANIZATION ( #193, #171 ) ;
#99 = CC_DESIGN_SECURITY_CLASSIFICATION ( #176, ( #77 ) ) ;
#100 = EDGE_LOOP ( 'NONE', ( #159 ) ) ;
#101 = FACE_OUTER_BOUND ( 'NONE', #29, .T. ) ;
#102 = FACE_OUTER_BOUND ( 'NONE', #201, .T. ) ;
#103 = PLANE ( 'NONE',  #76 ) ;
#104 = ADVANCED_FACE ( 'NONE', ( #41, #101 ), #202, .T. ) ;
#105 = CALENDAR_DATE ( 2021, 6, 10 ) ;
#106 = CC_DESIGN_APPROVAL ( #63, ( #71 ) ) ;
#107 = ADVANCED_FACE ( 'NONE', ( #160, #7 ), #198, .T. ) ;
#108 = CC_DESIGN_PERSON_AND_ORGANIZATION_ASSIGNMENT ( #35, #119, ( #71 ) ) ;
#109 = LOCAL_TIME ( 11, 22, 52.00000000000000000, #57 ) ;
#110 = DIRECTION ( 'NONE',  ( 0.0000000000000000000, 0.0000000000000000000, 1.000000000000000000 ) ) ;
#111 = MECHANICAL_CONTEXT ( 'NONE', #11, 'mechanical' ) ;
#112 = ADVANCED_BREP_SHAPE_REPRESENTATION ( '53590', ( #4, #150, #121 ), #92 ) ;
#113 = EDGE_LOOP ( 'NONE', ( #154 ) ) ;
#114 = APPROVAL_ROLE ( '' ) ;
#115 = APPROVAL_PERSON_ORGANIZATION ( #96, #63, #114 ) ;
#116 = ORIENTED_EDGE ( 'NONE', *, *, #144, .T. ) ;
#117 = LOCAL_TIME ( 11, 22, 52.00000000000000000, #3 ) ;
#118 = PLANE ( 'NONE',  #147 ) ;
#119 = PERSON_AND_ORGANIZATION_ROLE ( 'creator' ) ;
#120 = DATE_AND_TIME ( #88, #109 ) ;
#121 = AXIS2_PLACEMENT_3D ( 'NONE', #43, #110, #140 ) ;
#122 = CC_DESIGN_PERSON_AND_ORGANIZATION_ASSIGNMENT ( #98, #66, ( #151 ) ) ;
#123 = SHAPE_DEFINITION_REPRESENTATION ( #19, #112 ) ;
#124 = DIRECTION ( 'NONE',  ( -3.491481338843133355E-15, 1.224646799147353207E-16, -1.000000000000000000 ) ) ;
#125 = CARTESIAN_POINT ( 'NONE',  ( 0.0000000000000000000, 0.0000000000000000000, 0.0000000000000000000 ) ) ;
#126 = ORIENTED_EDGE ( 'NONE', *, *, #50, .T. ) ;
#127 = VERTEX_POINT ( 'NONE', #49 ) ;
#128 = DIRECTION ( 'NONE',  ( -3.491481338843133355E-15, 1.224646799147353207E-16, -1.000000000000000000 ) ) ;
#129 = APPROVAL_DATE_TIME ( #143, #63 ) ;
#130 = APPROVAL ( #68, 'UNSPECIFIED' ) ;
#131 = AXIS2_PLACEMENT_3D ( 'NONE', #8, #186, #42 ) ;
#132 = EDGE_LOOP ( 'NONE', ( #126 ) ) ;
#133 = DIRECTION ( 'NONE',  ( 0.0000000000000000000, 1.000000000000000000, 0.0000000000000000000 ) ) ;
#134 = CALENDAR_DATE ( 2021, 6, 10 ) ;
#135 = ADVANCED_FACE ( 'NONE', ( #83 ), #67, .T. ) ;
#136 = PERSON_AND_ORGANIZATION_ROLE ( 'creator' ) ;
#137 = APPROVAL_STATUS ( 'not_yet_approved' ) ;
#138 = EDGE_CURVE ( 'NONE', #127, #127, #203, .T. ) ;
#139 = CARTESIAN_POINT ( 'NONE',  ( 2.444036937190193349E-14, -8.572527594031473190E-16, 7.000000000000000000 ) ) ;
#140 = DIRECTION ( 'NONE',  ( 1.000000000000000000, 0.0000000000000000000, 0.0000000000000000000 ) ) ;
#141 = VERTEX_POINT ( 'NONE', #200 ) ;
#142 = EDGE_LOOP ( 'NONE', ( #116 ) ) ;
#143 = DATE_AND_TIME ( #30, #168 ) ;
#144 = EDGE_CURVE ( 'NONE', #32, #32, #196, .T. ) ;
#145 = CARTESIAN_POINT ( 'NONE',  ( 2.444036937190193349E-14, 2.999519565323681004E-33, 7.000000000000000000 ) ) ;
#146 = PERSON_AND_ORGANIZATION_ROLE ( 'classification_officer' ) ;
#147 = AXIS2_PLACEMENT_3D ( 'NONE', #145, #157, #82 ) ;
#148 = ADVANCED_FACE ( 'NONE', ( #28 ), #78, .F. ) ;
#149 = CARTESIAN_POINT ( 'NONE',  ( 1.043952920314096810E-13, -3.661693929450586610E-15, 29.89999999999999858 ) ) ;
#150 = MANIFOLD_SOLID_BREP ( 'Corps-Déplacer/Copier1[2]', #10 ) ;
#151 = PRODUCT ( '53590', '53590', '', ( #111 ) ) ;
#152 = CLOSED_SHELL ( 'NONE', ( #173, #104, #185, #148 ) ) ;
#153 = DIRECTION ( 'NONE',  ( 4.275831445896958607E-31, 1.000000000000000000, 1.224646799147353207E-16 ) ) ;
#154 = ORIENTED_EDGE ( 'NONE', *, *, #5, .T. ) ;
#155 = CARTESIAN_POINT ( 'NONE',  ( 1.047444401652940007E-13, 2.249639673992731674E-33, 30.00000000000000000 ) ) ;
#156 = EDGE_LOOP ( 'NONE', ( #9 ) ) ;
#157 = DIRECTION ( 'NONE',  ( 3.491481338843133355E-15, -1.224646799147353207E-16, 1.000000000000000000 ) ) ;
#158 = AXIS2_PLACEMENT_3D ( 'NONE', #139, #45, #70 ) ;
#159 = ORIENTED_EDGE ( 'NONE', *, *, #138, .T. ) ;
#160 = FACE_OUTER_BOUND ( 'NONE', #156, .T. ) ;
#161 = DIRECTION ( 'NONE',  ( -3.491481338843133355E-15, 1.224646799147353207E-16, -1.000000000000000000 ) ) ;
#162 = APPROVAL_PERSON_ORGANIZATION ( #17, #34, #59 ) ;
#163 = DIRECTION ( 'NONE',  ( 0.0000000000000000000, 1.000000000000000000, 0.0000000000000000000 ) ) ;
#164 = PERSON_AND_ORGANIZATION ( #193, #171 ) ;
#165 = CARTESIAN_POINT ( 'NONE',  ( 1.047444401652940007E-13, -3.673940397442059178E-15, 30.00000000000000000 ) ) ;
#166 = DATE_TIME_ROLE ( 'classification_date' ) ;
#167 = DESIGN_CONTEXT ( 'detailed design', #21, 'design' ) ;
#168 = LOCAL_TIME ( 11, 22, 52.00000000000000000, #175 ) ;
#169 = AXIS2_PLACEMENT_3D ( 'NONE', #23, #22, #94 ) ;
#170 = DIRECTION ( 'NONE',  ( -3.491481338843133355E-15, 1.224646799147353207E-16, -1.000000000000000000 ) ) ;
#171 = ORGANIZATION ( 'UNSPECIFIED', 'UNSPECIFIED', '' ) ;
#172 = ORIENTED_EDGE ( 'NONE', *, *, #138, .F. ) ;
#173 = ADVANCED_FACE ( 'NONE', ( #6 ), #103, .F. ) ;
#174 = ORIENTED_EDGE ( 'NONE', *, *, #181, .T. ) ;
#175 = COORDINATED_UNIVERSAL_TIME_OFFSET ( 1, 0, .AHEAD. ) ;
#176 = SECURITY_CLASSIFICATION ( '', '', #39 ) ;
#177 = CALENDAR_DATE ( 2021, 6, 10 ) ;
#178 = COORDINATED_UNIVERSAL_TIME_OFFSET ( 1, 0, .AHEAD. ) ;
#179 = UNCERTAINTY_MEASURE_WITH_UNIT (LENGTH_MEASURE( 1.000000000000000082E-05 ), #190, 'distance_accuracy_value', 'NONE');
#180 = DATE_AND_TIME ( #105, #192 ) ;
#181 = EDGE_CURVE ( 'NONE', #84, #84, #72, .T. ) ;
#182 = APPROVAL_ROLE ( '' ) ;
#183 = DIRECTION ( 'NONE',  ( 3.491481338843133355E-15, -1.224646799147353207E-16, 1.000000000000000000 ) ) ;
#184 = PERSON_AND_ORGANIZATION_ROLE ( 'design_supplier' ) ;
#185 = ADVANCED_FACE ( 'NONE', ( #102, #191 ), #81, .T. ) ;
#186 = DIRECTION ( 'NONE',  ( 3.491481338843133355E-15, -1.224646799147353207E-16, 1.000000000000000000 ) ) ;
#187 = CC_DESIGN_APPROVAL ( #34, ( #176 ) ) ;
#188 = EDGE_LOOP ( 'NONE', ( #172 ) ) ;
#189 = CARTESIAN_POINT ( 'NONE',  ( 8.063230763406571707E-16, -2.828200636599758634E-17, 0.2309401076758508531 ) ) ;
#190 =( LENGTH_UNIT ( ) NAMED_UNIT ( * ) SI_UNIT ( .MILLI., .METRE. ) );
#191 = FACE_BOUND ( 'NONE', #142, .T. ) ;
#192 = LOCAL_TIME ( 11, 22, 52.00000000000000000, #178 ) ;
#193 = PERSON ( 'UNSPECIFIED', 'UNSPECIFIED', 'UNSPECIFIED', ('UNSPECIFIED'), ('UNSPECIFIED'), ('UNSPECIFIED') ) ;
#194 = ADVANCED_FACE ( 'NONE', ( #56 ), #118, .T. ) ;
#195 = CC_DESIGN_APPROVAL ( #130, ( #77 ) ) ;
#196 = CIRCLE ( 'NONE', #55, 0.3000000000000000999 ) ;
#197 = PRODUCT_RELATED_PRODUCT_CATEGORY ( 'detail', '', ( #151 ) ) ;
#198 = CYLINDRICAL_SURFACE ( 'NONE', #52, 0.3999999999999968026 ) ;
#199 = CIRCLE ( 'NONE', #18, 0.3999999999999971911 ) ;
#200 = CARTESIAN_POINT ( 'NONE',  ( 2.444036937190193349E-14, 0.3999999999999963585, 7.000000000000000000 ) ) ;
#201 = EDGE_LOOP ( 'NONE', ( #80 ) ) ;
#202 = CYLINDRICAL_SURFACE ( 'NONE', #169, 0.3999999999999986899 ) ;
#203 = CIRCLE ( 'NONE', #158, 0.3999999999999971911 ) ;
ENDSEC;
END-ISO-10303-21;
