ISO-10303-21;
HEADER;
FILE_DESCRIPTION (( 'STEP AP203' ),
    '1' );
FILE_NAME ('53589.step',
    '2021-10-06T09:22:52',
    ( '' ),
    ( '' ),
    'SwSTEP 2.0',
    'SolidWorks 2019',
    '' );
FILE_SCHEMA (( 'CONFIG_CONTROL_DESIGN' ));
ENDSEC;

DATA;
#1 =( LENGTH_UNIT ( ) NAMED_UNIT ( * ) SI_UNIT ( .MILLI., .METRE. ) );
#2 = APPROVAL_ROLE ( '' ) ;
#3 = CIRCLE ( 'NONE', #152, 0.2500000000000000000 ) ;
#4 = DATE_AND_TIME ( #98, #83 ) ;
#5 = ORIENTED_EDGE ( 'NONE', *, *, #85, .T. ) ;
#6 = PERSON_AND_ORGANIZATION ( #103, #72 ) ;
#7 = DIRECTION ( 'NONE',  ( -3.491481338843133355E-15, 1.224646799147353207E-16, -1.000000000000000000 ) ) ;
#8 = PRODUCT ( '53589', '53589', '', ( #91 ) ) ;
#9 = LOCAL_TIME ( 11, 22, 52.00000000000000000, #194 ) ;
#10 = FACE_OUTER_BOUND ( 'NONE', #86, .T. ) ;
#11 = CARTESIAN_POINT ( 'NONE',  ( 0.0000000000000000000, 0.0000000000000000000, 0.0000000000000000000 ) ) ;
#12 = FACE_OUTER_BOUND ( 'NONE', #53, .T. ) ;
#13 = COORDINATED_UNIVERSAL_TIME_OFFSET ( 1, 0, .AHEAD. ) ;
#14 = EDGE_CURVE ( 'NONE', #101, #101, #17, .T. ) ;
#15 = CARTESIAN_POINT ( 'NONE',  ( 2.094888803305880013E-14, 2.624579619658217629E-33, 6.000000000000000000 ) ) ;
#16 = PERSON_AND_ORGANIZATION ( #103, #72 ) ;
#17 = CIRCLE ( 'NONE', #156, 0.3499999999999999778 ) ;
#18 = APPROVAL_STATUS ( 'not_yet_approved' ) ;
#19 = APPROVAL_DATE_TIME ( #143, #126 ) ;
#20 = MANIFOLD_SOLID_BREP ( 'Corps-Déplacer/Copier1[1]', #47 ) ;
#21 =( GEOMETRIC_REPRESENTATION_CONTEXT ( 3 ) GLOBAL_UNCERTAINTY_ASSIGNED_CONTEXT ( ( #87 ) ) GLOBAL_UNIT_ASSIGNED_CONTEXT ( ( #1, #34, #192 ) ) REPRESENTATION_CONTEXT ( 'NONE', 'WORKASPACE' ) );
#22 = CARTESIAN_POINT ( 'NONE',  ( 1.043952920314096810E-13, 0.3499999999999963141, 29.89999999999999858 ) ) ;
#23 = AXIS2_PLACEMENT_3D ( 'NONE', #198, #184, #70 ) ;
#24 = DIRECTION ( 'NONE',  ( -3.491481338843133355E-15, 1.224646799147353207E-16, -1.000000000000000000 ) ) ;
#25 = ORIENTED_EDGE ( 'NONE', *, *, #68, .F. ) ;
#26 = PERSON_AND_ORGANIZATION_ROLE ( 'design_owner' ) ;
#27 = ORIENTED_EDGE ( 'NONE', *, *, #68, .T. ) ;
#28 = APPROVAL_DATE_TIME ( #111, #104 ) ;
#29 = APPROVAL_STATUS ( 'not_yet_approved' ) ;
#30 = DIRECTION ( 'NONE',  ( 0.0000000000000000000, 1.000000000000000000, 0.0000000000000000000 ) ) ;
#31 = CARTESIAN_POINT ( 'NONE',  ( 0.0000000000000000000, 0.0000000000000000000, 0.0000000000000000000 ) ) ;
#32 = DIRECTION ( 'NONE',  ( 4.275831445896958607E-31, 1.000000000000000000, 1.224646799147353207E-16 ) ) ;
#33 = DIRECTION ( 'NONE',  ( 1.000000000000000000, 0.0000000000000000000, 0.0000000000000000000 ) ) ;
#34 =( NAMED_UNIT ( * ) PLANE_ANGLE_UNIT ( ) SI_UNIT ( $, .RADIAN. ) );
#35 = ORIENTED_EDGE ( 'NONE', *, *, #175, .T. ) ;
#36 = EDGE_LOOP ( 'NONE', ( #132 ) ) ;
#37 = CARTESIAN_POINT ( 'NONE',  ( 1.043952920314096810E-13, -3.661693929450586610E-15, 29.89999999999999858 ) ) ;
#38 = PERSON_AND_ORGANIZATION_ROLE ( 'creator' ) ;
#39 = LOCAL_TIME ( 11, 22, 52.00000000000000000, #13 ) ;
#40 = DIRECTION ( 'NONE',  ( 5.502656983963589188E-31, 1.000000000000000000, 1.548860246407879853E-16 ) ) ;
#41 = CC_DESIGN_PERSON_AND_ORGANIZATION_ASSIGNMENT ( #107, #96, ( #186 ) ) ;
#42 = AXIS2_PLACEMENT_3D ( 'NONE', #31, #181, #166 ) ;
#43 = DIRECTION ( 'NONE',  ( 0.0000000000000000000, 1.000000000000000000, 0.0000000000000000000 ) ) ;
#44 = CARTESIAN_POINT ( 'NONE',  ( 1.047444401652940007E-13, 1.874699728327266587E-33, 30.00000000000000000 ) ) ;
#45 = PRODUCT_RELATED_PRODUCT_CATEGORY ( 'detail', '', ( #8 ) ) ;
#46 = DIRECTION ( 'NONE',  ( 0.0000000000000000000, 0.0000000000000000000, 1.000000000000000000 ) ) ;
#47 = CLOSED_SHELL ( 'NONE', ( #190, #65, #157, #123 ) ) ;
#48 = DIRECTION ( 'NONE',  ( 3.491481338843133355E-15, -1.224646799147353207E-16, 1.000000000000000000 ) ) ;
#49 = AXIS2_PLACEMENT_3D ( 'NONE', #167, #125, #93 ) ;
#50 = VERTEX_POINT ( 'NONE', #116 ) ;
#51 = APPLICATION_CONTEXT ( 'configuration controlled 3d designs of mechanical parts and assemblies' ) ;
#52 = DIRECTION ( 'NONE',  ( 4.275831445896958607E-31, 1.000000000000000000, 1.224646799147353207E-16 ) ) ;
#53 = EDGE_LOOP ( 'NONE', ( #63 ) ) ;
#54 = DATE_AND_TIME ( #141, #9 ) ;
#55 = LOCAL_TIME ( 11, 22, 52.00000000000000000, #135 ) ;
#56 = PRODUCT_DEFINITION_SHAPE ( 'NONE', 'NONE',  #187 ) ;
#57 = FACE_OUTER_BOUND ( 'NONE', #174, .T. ) ;
#58 = AXIS2_PLACEMENT_3D ( 'NONE', #171, #73, #140 ) ;
#59 = PERSON_AND_ORGANIZATION ( #103, #72 ) ;
#60 = DIRECTION ( 'NONE',  ( -3.491481338843133355E-15, 1.224646799147353207E-16, -1.000000000000000000 ) ) ;
#61 = AXIS2_PLACEMENT_3D ( 'NONE', #84, #48, #188 ) ;
#62 = CONICAL_SURFACE ( 'NONE', #134, 0.3499999999999963141, 1.047197551196592746 ) ;
#63 = ORIENTED_EDGE ( 'NONE', *, *, #146, .F. ) ;
#64 = VERTEX_POINT ( 'NONE', #144 ) ;
#65 = ADVANCED_FACE ( 'NONE', ( #12, #138 ), #108, .T. ) ;
#66 = LOCAL_TIME ( 11, 22, 52.00000000000000000, #130 ) ;
#67 = ORIENTED_EDGE ( 'NONE', *, *, #14, .F. ) ;
#68 = EDGE_CURVE ( 'NONE', #50, #50, #195, .T. ) ;
#69 = APPLICATION_PROTOCOL_DEFINITION ( 'international standard', 'config_control_design', 1994, #74 ) ;
#70 = DIRECTION ( 'NONE',  ( 0.0000000000000000000, 1.000000000000000000, 0.0000000000000000000 ) ) ;
#71 = CC_DESIGN_APPROVAL ( #104, ( #187 ) ) ;
#72 = ORGANIZATION ( 'UNSPECIFIED', 'UNSPECIFIED', '' ) ;
#73 = DIRECTION ( 'NONE',  ( -3.491481338843133355E-15, 1.224646799147353207E-16, -1.000000000000000000 ) ) ;
#74 = APPLICATION_CONTEXT ( 'configuration controlled 3d designs of mechanical parts and assemblies' ) ;
#75 = PLANE ( 'NONE',  #102 ) ;
#76 = MANIFOLD_SOLID_BREP ( 'Corps-Déplacer/Copier1[2]', #77 ) ;
#77 = CLOSED_SHELL ( 'NONE', ( #113, #177, #109 ) ) ;
#78 = CC_DESIGN_APPROVAL ( #154, ( #186 ) ) ;
#79 = CC_DESIGN_PERSON_AND_ORGANIZATION_ASSIGNMENT ( #59, #38, ( #186 ) ) ;
#80 = VERTEX_POINT ( 'NONE', #82 ) ;
#81 = PERSON_AND_ORGANIZATION ( #103, #72 ) ;
#82 = CARTESIAN_POINT ( 'NONE',  ( 1.047444401652940007E-13, 0.2499999999999963085, 30.00000000000000000 ) ) ;
#83 = LOCAL_TIME ( 11, 22, 52.00000000000000000, #149 ) ;
#84 = CARTESIAN_POINT ( 'NONE',  ( 2.094888803305880013E-14, 2.624579619658217629E-33, 6.000000000000000000 ) ) ;
#85 = EDGE_CURVE ( 'NONE', #80, #80, #3, .T. ) ;
#86 = EDGE_LOOP ( 'NONE', ( #90 ) ) ;
#87 = UNCERTAINTY_MEASURE_WITH_UNIT (LENGTH_MEASURE( 1.000000000000000082E-05 ), #1, 'distance_accuracy_value', 'NONE');
#88 = AXIS2_PLACEMENT_3D ( 'NONE', #196, #124, #40 ) ;
#89 = PERSON_AND_ORGANIZATION_ROLE ( 'creator' ) ;
#90 = ORIENTED_EDGE ( 'NONE', *, *, #85, .F. ) ;
#91 = MECHANICAL_CONTEXT ( 'NONE', #51, 'mechanical' ) ;
#92 = CARTESIAN_POINT ( 'NONE',  ( 1.047444401652940007E-13, -3.673940397442059178E-15, 30.00000000000000000 ) ) ;
#93 = DIRECTION ( 'NONE',  ( 0.0000000000000000000, 1.000000000000000000, 0.0000000000000000000 ) ) ;
#94 = FACE_OUTER_BOUND ( 'NONE', #118, .T. ) ;
#95 = FACE_BOUND ( 'NONE', #119, .T. ) ;
#96 = PERSON_AND_ORGANIZATION_ROLE ( 'design_supplier' ) ;
#97 = DIRECTION ( 'NONE',  ( -5.502656983963589188E-31, -1.000000000000000000, -1.548860246407879853E-16 ) ) ;
#98 = CALENDAR_DATE ( 2021, 6, 10 ) ;
#99 = SECURITY_CLASSIFICATION ( '', '', #114 ) ;
#100 = SHAPE_DEFINITION_REPRESENTATION ( #56, #191 ) ;
#101 = VERTEX_POINT ( 'NONE', #22 ) ;
#102 = AXIS2_PLACEMENT_3D ( 'NONE', #15, #182, #151 ) ;
#103 = PERSON ( 'UNSPECIFIED', 'UNSPECIFIED', 'UNSPECIFIED', ('UNSPECIFIED'), ('UNSPECIFIED'), ('UNSPECIFIED') ) ;
#104 = APPROVAL ( #29, 'UNSPECIFIED' ) ;
#105 = APPLICATION_PROTOCOL_DEFINITION ( 'international standard', 'config_control_design', 1994, #51 ) ;
#106 = DIRECTION ( 'NONE',  ( -3.491481338843133355E-15, 1.224646799147353207E-16, -1.000000000000000000 ) ) ;
#107 = PERSON_AND_ORGANIZATION ( #103, #72 ) ;
#108 = CYLINDRICAL_SURFACE ( 'NONE', #42, 0.3499999999999985345 ) ;
#109 = ADVANCED_FACE ( 'NONE', ( #112 ), #75, .T. ) ;
#110 = AXIS2_PLACEMENT_3D ( 'NONE', #11, #24, #52 ) ;
#111 = DATE_AND_TIME ( #163, #55 ) ;
#112 = FACE_OUTER_BOUND ( 'NONE', #179, .T. ) ;
#113 = ADVANCED_FACE ( 'NONE', ( #127 ), #62, .T. ) ;
#114 = SECURITY_CLASSIFICATION_LEVEL ( 'unclassified' ) ;
#115 = VERTEX_POINT ( 'NONE', #147 ) ;
#116 = CARTESIAN_POINT ( 'NONE',  ( 2.094888803305880013E-14, 0.3499999999999963141, 6.000000000000000000 ) ) ;
#117 = CC_DESIGN_PERSON_AND_ORGANIZATION_ASSIGNMENT ( #136, #89, ( #187 ) ) ;
#118 = EDGE_LOOP ( 'NONE', ( #27 ) ) ;
#119 = EDGE_LOOP ( 'NONE', ( #5 ) ) ;
#120 = DATE_TIME_ROLE ( 'creation_date' ) ;
#121 = CC_DESIGN_SECURITY_CLASSIFICATION ( #99, ( #186 ) ) ;
#122 = APPROVAL_DATE_TIME ( #54, #154 ) ;
#123 = ADVANCED_FACE ( 'NONE', ( #10 ), #150, .F. ) ;
#124 = DIRECTION ( 'NONE',  ( -3.491481338843133355E-15, 1.224646799147353207E-16, -1.000000000000000000 ) ) ;
#125 = DIRECTION ( 'NONE',  ( -3.491481338843133355E-15, 1.224646799147353207E-16, -1.000000000000000000 ) ) ;
#126 = APPROVAL ( #18, 'UNSPECIFIED' ) ;
#127 = FACE_OUTER_BOUND ( 'NONE', #133, .T. ) ;
#128 = CALENDAR_DATE ( 2021, 6, 10 ) ;
#129 = CC_DESIGN_DATE_AND_TIME_ASSIGNMENT ( #4, #120, ( #187 ) ) ;
#130 = COORDINATED_UNIVERSAL_TIME_OFFSET ( 1, 0, .AHEAD. ) ;
#131 = PLANE ( 'NONE',  #61 ) ;
#132 = ORIENTED_EDGE ( 'NONE', *, *, #146, .T. ) ;
#133 = EDGE_LOOP ( 'NONE', ( #35 ) ) ;
#134 = AXIS2_PLACEMENT_3D ( 'NONE', #169, #183, #97 ) ;
#135 = COORDINATED_UNIVERSAL_TIME_OFFSET ( 1, 0, .AHEAD. ) ;
#136 = PERSON_AND_ORGANIZATION ( #103, #72 ) ;
#137 = APPROVAL_ROLE ( '' ) ;
#138 = FACE_OUTER_BOUND ( 'NONE', #161, .T. ) ;
#139 = CARTESIAN_POINT ( 'NONE',  ( 0.0000000000000000000, 0.0000000000000000000, 0.0000000000000000000 ) ) ;
#140 = DIRECTION ( 'NONE',  ( 0.0000000000000000000, 1.000000000000000000, 0.0000000000000000000 ) ) ;
#141 = CALENDAR_DATE ( 2021, 6, 10 ) ;
#142 = CC_DESIGN_PERSON_AND_ORGANIZATION_ASSIGNMENT ( #16, #26, ( #8 ) ) ;
#143 = DATE_AND_TIME ( #202, #66 ) ;
#144 = CARTESIAN_POINT ( 'NONE',  ( 7.055326917980740876E-16, 0.3499999999999963141, 0.2020725942163692501 ) ) ;
#145 = DATE_TIME_ROLE ( 'classification_date' ) ;
#146 = EDGE_CURVE ( 'NONE', #115, #115, #172, .T. ) ;
#147 = CARTESIAN_POINT ( 'NONE',  ( 2.094888803305880013E-14, 0.3499999999999963141, 6.000000000000000000 ) ) ;
#148 = ORIENTED_EDGE ( 'NONE', *, *, #14, .T. ) ;
#149 = COORDINATED_UNIVERSAL_TIME_OFFSET ( 1, 0, .AHEAD. ) ;
#150 = PLANE ( 'NONE',  #173 ) ;
#151 = DIRECTION ( 'NONE',  ( -4.275831445896958607E-31, -1.000000000000000000, -1.224646799147353207E-16 ) ) ;
#152 = AXIS2_PLACEMENT_3D ( 'NONE', #92, #7, #30 ) ;
#153 = CYLINDRICAL_SURFACE ( 'NONE', #110, 0.3499999999999967026 ) ;
#154 = APPROVAL ( #170, 'UNSPECIFIED' ) ;
#155 = PERSON_AND_ORGANIZATION ( #103, #72 ) ;
#156 = AXIS2_PLACEMENT_3D ( 'NONE', #37, #106, #43 ) ;
#157 = ADVANCED_FACE ( 'NONE', ( #57, #95 ), #197, .T. ) ;
#158 = FACE_OUTER_BOUND ( 'NONE', #36, .T. ) ;
#159 = CC_DESIGN_DATE_AND_TIME_ASSIGNMENT ( #185, #145, ( #99 ) ) ;
#160 = CIRCLE ( 'NONE', #88, 0.3499999999999963141 ) ;
#161 = EDGE_LOOP ( 'NONE', ( #148 ) ) ;
#162 = ORIENTED_EDGE ( 'NONE', *, *, #175, .F. ) ;
#163 = CALENDAR_DATE ( 2021, 6, 10 ) ;
#164 = APPROVAL_PERSON_ORGANIZATION ( #81, #126, #200 ) ;
#165 = PERSON_AND_ORGANIZATION ( #103, #72 ) ;
#166 = DIRECTION ( 'NONE',  ( 4.275831445896958607E-31, 1.000000000000000000, 1.224646799147353207E-16 ) ) ;
#167 = CARTESIAN_POINT ( 'NONE',  ( 2.094888803305880013E-14, -7.347880794884119736E-16, 6.000000000000000000 ) ) ;
#168 = FACE_OUTER_BOUND ( 'NONE', #178, .T. ) ;
#169 = CARTESIAN_POINT ( 'NONE',  ( 7.055326917980738904E-16, -2.474675557024784876E-17, 0.2020725942163691946 ) ) ;
#170 = APPROVAL_STATUS ( 'not_yet_approved' ) ;
#171 = CARTESIAN_POINT ( 'NONE',  ( 2.094888803305880013E-14, -7.347880794884119736E-16, 6.000000000000000000 ) ) ;
#172 = CIRCLE ( 'NONE', #58, 0.3499999999999970912 ) ;
#173 = AXIS2_PLACEMENT_3D ( 'NONE', #44, #60, #32 ) ;
#174 = EDGE_LOOP ( 'NONE', ( #67 ) ) ;
#175 = EDGE_CURVE ( 'NONE', #64, #64, #160, .T. ) ;
#176 = DESIGN_CONTEXT ( 'detailed design', #74, 'design' ) ;
#177 = ADVANCED_FACE ( 'NONE', ( #168, #94 ), #153, .T. ) ;
#178 = EDGE_LOOP ( 'NONE', ( #162 ) ) ;
#179 = EDGE_LOOP ( 'NONE', ( #25 ) ) ;
#180 = AXIS2_PLACEMENT_3D ( 'NONE', #139, #46, #33 ) ;
#181 = DIRECTION ( 'NONE',  ( -3.491481338843133355E-15, 1.224646799147353207E-16, -1.000000000000000000 ) ) ;
#182 = DIRECTION ( 'NONE',  ( 3.491481338843133355E-15, -1.224646799147353207E-16, 1.000000000000000000 ) ) ;
#183 = DIRECTION ( 'NONE',  ( 3.491481338843133355E-15, -1.224646799147353207E-16, 1.000000000000000000 ) ) ;
#184 = DIRECTION ( 'NONE',  ( -3.491481338843133355E-15, 1.224646799147353207E-16, -1.000000000000000000 ) ) ;
#185 = DATE_AND_TIME ( #128, #39 ) ;
#186 = PRODUCT_DEFINITION_FORMATION_WITH_SPECIFIED_SOURCE ( 'ANY', '', #8, .NOT_KNOWN. ) ;
#187 = PRODUCT_DEFINITION ( 'UNKNOWN', '', #186, #176 ) ;
#188 = DIRECTION ( 'NONE',  ( -4.275831445896958607E-31, -1.000000000000000000, -1.224646799147353207E-16 ) ) ;
#189 = APPROVAL_PERSON_ORGANIZATION ( #155, #154, #137 ) ;
#190 = ADVANCED_FACE ( 'NONE', ( #158 ), #131, .F. ) ;
#191 = ADVANCED_BREP_SHAPE_REPRESENTATION ( '53589', ( #20, #76, #180 ), #21 ) ;
#192 =( NAMED_UNIT ( * ) SI_UNIT ( $, .STERADIAN. ) SOLID_ANGLE_UNIT ( ) );
#193 = CC_DESIGN_PERSON_AND_ORGANIZATION_ASSIGNMENT ( #6, #199, ( #99 ) ) ;
#194 = COORDINATED_UNIVERSAL_TIME_OFFSET ( 1, 0, .AHEAD. ) ;
#195 = CIRCLE ( 'NONE', #49, 0.3499999999999970912 ) ;
#196 = CARTESIAN_POINT ( 'NONE',  ( 7.055326917980738904E-16, -2.474675557024784876E-17, 0.2020725942163691946 ) ) ;
#197 = CONICAL_SURFACE ( 'NONE', #23, 0.2500000000000000000, 0.7853981633974512766 ) ;
#198 = CARTESIAN_POINT ( 'NONE',  ( 1.047444401652940007E-13, -3.673940397442059178E-15, 30.00000000000000000 ) ) ;
#199 = PERSON_AND_ORGANIZATION_ROLE ( 'classification_officer' ) ;
#200 = APPROVAL_ROLE ( '' ) ;
#201 = APPROVAL_PERSON_ORGANIZATION ( #165, #104, #2 ) ;
#202 = CALENDAR_DATE ( 2021, 6, 10 ) ;
#203 = CC_DESIGN_APPROVAL ( #126, ( #99 ) ) ;
ENDSEC;
END-ISO-10303-21;
