ISO-10303-21;
HEADER;
FILE_DESCRIPTION (( 'STEP AP203' ),
    '1' );
FILE_NAME ('53588.step',
    '2021-10-06T09:22:52',
    ( '' ),
    ( '' ),
    'SwSTEP 2.0',
    'SolidWorks 2019',
    '' );
FILE_SCHEMA (( 'CONFIG_CONTROL_DESIGN' ));
ENDSEC;

DATA;
#1 = ORIENTED_EDGE ( 'NONE', *, *, #37, .F. ) ;
#2 = CC_DESIGN_SECURITY_CLASSIFICATION ( #177, ( #19 ) ) ;
#3 = APPLICATION_CONTEXT ( 'configuration controlled 3d designs of mechanical parts and assemblies' ) ;
#4 = PRODUCT ( '53588', '53588', '', ( #123 ) ) ;
#5 = ORIENTED_EDGE ( 'NONE', *, *, #54, .F. ) ;
#6 = APPROVAL ( #106, 'UNSPECIFIED' ) ;
#7 = EDGE_LOOP ( 'NONE', ( #95 ) ) ;
#8 = AXIS2_PLACEMENT_3D ( 'NONE', #152, #79, #199 ) ;
#9 = DIRECTION ( 'NONE',  ( 3.491481338843133355E-15, -1.224646799147353207E-16, 1.000000000000000000 ) ) ;
#10 =( LENGTH_UNIT ( ) NAMED_UNIT ( * ) SI_UNIT ( .MILLI., .METRE. ) );
#11 = DATE_AND_TIME ( #117, #58 ) ;
#12 =( NAMED_UNIT ( * ) PLANE_ANGLE_UNIT ( ) SI_UNIT ( $, .RADIAN. ) );
#13 = PERSON_AND_ORGANIZATION ( #184, #111 ) ;
#14 = MANIFOLD_SOLID_BREP ( 'Corps-Déplacer/Copier1[1]', #32 ) ;
#15 = VERTEX_POINT ( 'NONE', #88 ) ;
#16 = APPLICATION_CONTEXT ( 'configuration controlled 3d designs of mechanical parts and assemblies' ) ;
#17 = CARTESIAN_POINT ( 'NONE',  ( 6.551374995267824475E-16, -2.297913017237298459E-17, 0.1876388374866284070 ) ) ;
#18 = CC_DESIGN_DATE_AND_TIME_ASSIGNMENT ( #50, #62, ( #158 ) ) ;
#19 = PRODUCT_DEFINITION_FORMATION_WITH_SPECIFIED_SOURCE ( 'ANY', '', #4, .NOT_KNOWN. ) ;
#20 = PERSON_AND_ORGANIZATION ( #184, #111 ) ;
#21 = AXIS2_PLACEMENT_3D ( 'NONE', #169, #135, #195 ) ;
#22 = EDGE_LOOP ( 'NONE', ( #38 ) ) ;
#23 = AXIS2_PLACEMENT_3D ( 'NONE', #125, #129, #52 ) ;
#24 = VERTEX_POINT ( 'NONE', #116 ) ;
#25 = APPROVAL_PERSON_ORGANIZATION ( #186, #150, #203 ) ;
#26 = DIRECTION ( 'NONE',  ( 4.275831445896958607E-31, 1.000000000000000000, 1.224646799147353207E-16 ) ) ;
#27 = APPROVAL_ROLE ( '' ) ;
#28 = DIRECTION ( 'NONE',  ( -3.491481338843133355E-15, 1.224646799147353207E-16, -1.000000000000000000 ) ) ;
#29 = CC_DESIGN_APPROVAL ( #150, ( #158 ) ) ;
#30 = DIRECTION ( 'NONE',  ( 0.0000000000000000000, 1.000000000000000000, 0.0000000000000000000 ) ) ;
#31 = APPROVAL_DATE_TIME ( #11, #6 ) ;
#32 = CLOSED_SHELL ( 'NONE', ( #132, #76, #45, #136 ) ) ;
#33 = EDGE_LOOP ( 'NONE', ( #1 ) ) ;
#34 = AXIS2_PLACEMENT_3D ( 'NONE', #57, #28, #165 ) ;
#35 = CARTESIAN_POINT ( 'NONE',  ( 1.047444401652940007E-13, -3.673940397442059178E-15, 30.00000000000000000 ) ) ;
#36 = ADVANCED_BREP_SHAPE_REPRESENTATION ( '53588', ( #14, #73, #146 ), #87 ) ;
#37 = EDGE_CURVE ( 'NONE', #93, #93, #47, .T. ) ;
#38 = ORIENTED_EDGE ( 'NONE', *, *, #96, .T. ) ;
#39 = DIRECTION ( 'NONE',  ( 2.962969145211166002E-31, 1.000000000000000000, 8.340016711427052663E-17 ) ) ;
#40 = CARTESIAN_POINT ( 'NONE',  ( 0.0000000000000000000, 0.0000000000000000000, 0.0000000000000000000 ) ) ;
#41 = SHAPE_DEFINITION_REPRESENTATION ( #175, #36 ) ;
#42 = DIRECTION ( 'NONE',  ( -4.275831445896958607E-31, -1.000000000000000000, -1.224646799147353207E-16 ) ) ;
#43 = DIRECTION ( 'NONE',  ( 3.491481338843133355E-15, -1.224646799147353207E-16, 1.000000000000000000 ) ) ;
#44 = COORDINATED_UNIVERSAL_TIME_OFFSET ( 1, 0, .AHEAD. ) ;
#45 = ADVANCED_FACE ( 'NONE', ( #174, #56 ), #81, .T. ) ;
#46 = CARTESIAN_POINT ( 'NONE',  ( 1.047444401652940007E-13, 1.687229755494534386E-33, 30.00000000000000000 ) ) ;
#47 = CIRCLE ( 'NONE', #23, 0.3249999999999970690 ) ;
#48 = APPROVAL_PERSON_ORGANIZATION ( #178, #6, #78 ) ;
#49 = DIRECTION ( 'NONE',  ( 1.000000000000000000, 0.0000000000000000000, 0.0000000000000000000 ) ) ;
#50 = DATE_AND_TIME ( #89, #75 ) ;
#51 = COORDINATED_UNIVERSAL_TIME_OFFSET ( 1, 0, .AHEAD. ) ;
#52 = DIRECTION ( 'NONE',  ( 0.0000000000000000000, 1.000000000000000000, 0.0000000000000000000 ) ) ;
#53 = LOCAL_TIME ( 11, 22, 52.00000000000000000, #51 ) ;
#54 = EDGE_CURVE ( 'NONE', #161, #161, #163, .T. ) ;
#55 = AXIS2_PLACEMENT_3D ( 'NONE', #46, #104, #149 ) ;
#56 = FACE_BOUND ( 'NONE', #86, .T. ) ;
#57 = CARTESIAN_POINT ( 'NONE',  ( 0.0000000000000000000, 0.0000000000000000000, 0.0000000000000000000 ) ) ;
#58 = LOCAL_TIME ( 11, 22, 52.00000000000000000, #120 ) ;
#59 = CARTESIAN_POINT ( 'NONE',  ( 2.094888803305880013E-14, 0.3249999999999962919, 6.000000000000000000 ) ) ;
#60 = FACE_OUTER_BOUND ( 'NONE', #7, .T. ) ;
#61 = DIRECTION ( 'NONE',  ( 0.0000000000000000000, 1.000000000000000000, 0.0000000000000000000 ) ) ;
#62 = DATE_TIME_ROLE ( 'creation_date' ) ;
#63 = FACE_OUTER_BOUND ( 'NONE', #33, .T. ) ;
#64 = PERSON_AND_ORGANIZATION_ROLE ( 'design_supplier' ) ;
#65 = APPROVAL_PERSON_ORGANIZATION ( #72, #162, #27 ) ;
#66 = CC_DESIGN_PERSON_AND_ORGANIZATION_ASSIGNMENT ( #200, #64, ( #19 ) ) ;
#67 = CIRCLE ( 'NONE', #139, 0.3249999999999962919 ) ;
#68 = LOCAL_TIME ( 11, 22, 52.00000000000000000, #92 ) ;
#69 = EDGE_LOOP ( 'NONE', ( #110 ) ) ;
#70 = ADVANCED_FACE ( 'NONE', ( #60 ), #164, .T. ) ;
#71 = CARTESIAN_POINT ( 'NONE',  ( 6.551374995267825461E-16, 0.3249999999999962919, 0.1876388374866284348 ) ) ;
#72 = PERSON_AND_ORGANIZATION ( #184, #111 ) ;
#73 = MANIFOLD_SOLID_BREP ( 'Corps-Déplacer/Copier1[2]', #128 ) ;
#74 = DIRECTION ( 'NONE',  ( -2.962969145211166002E-31, -1.000000000000000000, -8.340016711427052663E-17 ) ) ;
#75 = LOCAL_TIME ( 11, 22, 52.00000000000000000, #44 ) ;
#76 = ADVANCED_FACE ( 'NONE', ( #133, #167 ), #197, .T. ) ;
#77 = DIRECTION ( 'NONE',  ( -3.491481338843133355E-15, 1.224646799147353207E-16, -1.000000000000000000 ) ) ;
#78 = APPROVAL_ROLE ( '' ) ;
#79 = DIRECTION ( 'NONE',  ( -3.491481338843133355E-15, 1.224646799147353207E-16, -1.000000000000000000 ) ) ;
#80 = PERSON_AND_ORGANIZATION_ROLE ( 'design_owner' ) ;
#81 = CONICAL_SURFACE ( 'NONE', #143, 0.2250000000000000056, 0.7853981633974512766 ) ;
#82 = APPROVAL_STATUS ( 'not_yet_approved' ) ;
#83 = ORIENTED_EDGE ( 'NONE', *, *, #54, .T. ) ;
#84 = AXIS2_PLACEMENT_3D ( 'NONE', #196, #130, #98 ) ;
#85 = ORIENTED_EDGE ( 'NONE', *, *, #144, .T. ) ;
#86 = EDGE_LOOP ( 'NONE', ( #83 ) ) ;
#87 =( GEOMETRIC_REPRESENTATION_CONTEXT ( 3 ) GLOBAL_UNCERTAINTY_ASSIGNED_CONTEXT ( ( #108 ) ) GLOBAL_UNIT_ASSIGNED_CONTEXT ( ( #10, #12, #154 ) ) REPRESENTATION_CONTEXT ( 'NONE', 'WORKASPACE' ) );
#88 = CARTESIAN_POINT ( 'NONE',  ( 1.043952920314096810E-13, 0.3249999999999962919, 29.89999999999999858 ) ) ;
#89 = CALENDAR_DATE ( 2021, 6, 10 ) ;
#90 = DATE_AND_TIME ( #183, #157 ) ;
#91 = CYLINDRICAL_SURFACE ( 'NONE', #159, 0.3249999999999966804 ) ;
#92 = COORDINATED_UNIVERSAL_TIME_OFFSET ( 1, 0, .AHEAD. ) ;
#93 = VERTEX_POINT ( 'NONE', #59 ) ;
#94 = COORDINATED_UNIVERSAL_TIME_OFFSET ( 1, 0, .AHEAD. ) ;
#95 = ORIENTED_EDGE ( 'NONE', *, *, #188, .T. ) ;
#96 = EDGE_CURVE ( 'NONE', #24, #24, #190, .T. ) ;
#97 = PLANE ( 'NONE',  #55 ) ;
#98 = DIRECTION ( 'NONE',  ( 0.0000000000000000000, 1.000000000000000000, 0.0000000000000000000 ) ) ;
#99 = DATE_AND_TIME ( #114, #68 ) ;
#100 = VERTEX_POINT ( 'NONE', #71 ) ;
#101 = FACE_OUTER_BOUND ( 'NONE', #192, .T. ) ;
#102 = PERSON_AND_ORGANIZATION_ROLE ( 'classification_officer' ) ;
#103 = AXIS2_PLACEMENT_3D ( 'NONE', #176, #43, #42 ) ;
#104 = DIRECTION ( 'NONE',  ( -3.491481338843133355E-15, 1.224646799147353207E-16, -1.000000000000000000 ) ) ;
#105 = PERSON_AND_ORGANIZATION ( #184, #111 ) ;
#106 = APPROVAL_STATUS ( 'not_yet_approved' ) ;
#107 = CALENDAR_DATE ( 2021, 6, 10 ) ;
#108 = UNCERTAINTY_MEASURE_WITH_UNIT (LENGTH_MEASURE( 1.000000000000000082E-05 ), #10, 'distance_accuracy_value', 'NONE');
#109 = ORIENTED_EDGE ( 'NONE', *, *, #37, .T. ) ;
#110 = ORIENTED_EDGE ( 'NONE', *, *, #144, .F. ) ;
#111 = ORGANIZATION ( 'UNSPECIFIED', 'UNSPECIFIED', '' ) ;
#112 = CC_DESIGN_PERSON_AND_ORGANIZATION_ASSIGNMENT ( #194, #198, ( #158 ) ) ;
#113 = FACE_OUTER_BOUND ( 'NONE', #145, .T. ) ;
#114 = CALENDAR_DATE ( 2021, 6, 10 ) ;
#115 = AXIS2_PLACEMENT_3D ( 'NONE', #17, #9, #74 ) ;
#116 = CARTESIAN_POINT ( 'NONE',  ( 2.094888803305880013E-14, 0.3249999999999962919, 6.000000000000000000 ) ) ;
#117 = CALENDAR_DATE ( 2021, 6, 10 ) ;
#118 = FACE_OUTER_BOUND ( 'NONE', #22, .T. ) ;
#119 = PLANE ( 'NONE',  #21 ) ;
#120 = COORDINATED_UNIVERSAL_TIME_OFFSET ( 1, 0, .AHEAD. ) ;
#121 = CC_DESIGN_PERSON_AND_ORGANIZATION_ASSIGNMENT ( #105, #102, ( #177 ) ) ;
#122 = FACE_OUTER_BOUND ( 'NONE', #124, .T. ) ;
#123 = MECHANICAL_CONTEXT ( 'NONE', #3, 'mechanical' ) ;
#124 = EDGE_LOOP ( 'NONE', ( #109 ) ) ;
#125 = CARTESIAN_POINT ( 'NONE',  ( 2.094888803305880013E-14, -7.347880794884119736E-16, 6.000000000000000000 ) ) ;
#126 = PRODUCT_RELATED_PRODUCT_CATEGORY ( 'detail', '', ( #4 ) ) ;
#127 = CC_DESIGN_APPROVAL ( #162, ( #177 ) ) ;
#128 = CLOSED_SHELL ( 'NONE', ( #70, #179, #147 ) ) ;
#129 = DIRECTION ( 'NONE',  ( -3.491481338843133355E-15, 1.224646799147353207E-16, -1.000000000000000000 ) ) ;
#130 = DIRECTION ( 'NONE',  ( -3.491481338843133355E-15, 1.224646799147353207E-16, -1.000000000000000000 ) ) ;
#131 = APPROVAL_STATUS ( 'not_yet_approved' ) ;
#132 = ADVANCED_FACE ( 'NONE', ( #118 ), #180, .F. ) ;
#133 = FACE_OUTER_BOUND ( 'NONE', #172, .T. ) ;
#134 = APPROVAL_DATE_TIME ( #140, #150 ) ;
#135 = DIRECTION ( 'NONE',  ( 3.491481338843133355E-15, -1.224646799147353207E-16, 1.000000000000000000 ) ) ;
#136 = ADVANCED_FACE ( 'NONE', ( #101 ), #97, .F. ) ;
#137 = DIRECTION ( 'NONE',  ( -3.491481338843133355E-15, 1.224646799147353207E-16, -1.000000000000000000 ) ) ;
#138 = APPLICATION_PROTOCOL_DEFINITION ( 'international standard', 'config_control_design', 1994, #16 ) ;
#139 = AXIS2_PLACEMENT_3D ( 'NONE', #182, #77, #39 ) ;
#140 = DATE_AND_TIME ( #107, #53 ) ;
#141 = ORIENTED_EDGE ( 'NONE', *, *, #96, .F. ) ;
#142 = DIRECTION ( 'NONE',  ( 0.0000000000000000000, 0.0000000000000000000, 1.000000000000000000 ) ) ;
#143 = AXIS2_PLACEMENT_3D ( 'NONE', #35, #160, #61 ) ;
#144 = EDGE_CURVE ( 'NONE', #15, #15, #173, .T. ) ;
#145 = EDGE_LOOP ( 'NONE', ( #189 ) ) ;
#146 = AXIS2_PLACEMENT_3D ( 'NONE', #156, #142, #49 ) ;
#147 = ADVANCED_FACE ( 'NONE', ( #63 ), #119, .T. ) ;
#148 = CARTESIAN_POINT ( 'NONE',  ( 1.047444401652940007E-13, 0.2249999999999963141, 30.00000000000000000 ) ) ;
#149 = DIRECTION ( 'NONE',  ( 4.275831445896958607E-31, 1.000000000000000000, 1.224646799147353207E-16 ) ) ;
#150 = APPROVAL ( #82, 'UNSPECIFIED' ) ;
#151 = DIRECTION ( 'NONE',  ( -3.491481338843133355E-15, 1.224646799147353207E-16, -1.000000000000000000 ) ) ;
#152 = CARTESIAN_POINT ( 'NONE',  ( 1.043952920314096810E-13, -3.661693929450586610E-15, 29.89999999999999858 ) ) ;
#153 = AXIS2_PLACEMENT_3D ( 'NONE', #193, #137, #30 ) ;
#154 =( NAMED_UNIT ( * ) SI_UNIT ( $, .STERADIAN. ) SOLID_ANGLE_UNIT ( ) );
#155 = EDGE_LOOP ( 'NONE', ( #85 ) ) ;
#156 = CARTESIAN_POINT ( 'NONE',  ( 0.0000000000000000000, 0.0000000000000000000, 0.0000000000000000000 ) ) ;
#157 = LOCAL_TIME ( 11, 22, 52.00000000000000000, #94 ) ;
#158 = PRODUCT_DEFINITION ( 'UNKNOWN', '', #19, #187 ) ;
#159 = AXIS2_PLACEMENT_3D ( 'NONE', #40, #151, #26 ) ;
#160 = DIRECTION ( 'NONE',  ( -3.491481338843133355E-15, 1.224646799147353207E-16, -1.000000000000000000 ) ) ;
#161 = VERTEX_POINT ( 'NONE', #148 ) ;
#162 = APPROVAL ( #131, 'UNSPECIFIED' ) ;
#163 = CIRCLE ( 'NONE', #84, 0.2250000000000000056 ) ;
#164 = CONICAL_SURFACE ( 'NONE', #115, 0.3249999999999962919, 1.047197551196592746 ) ;
#165 = DIRECTION ( 'NONE',  ( 4.275831445896958607E-31, 1.000000000000000000, 1.224646799147353207E-16 ) ) ;
#166 = PERSON_AND_ORGANIZATION_ROLE ( 'creator' ) ;
#167 = FACE_OUTER_BOUND ( 'NONE', #155, .T. ) ;
#168 = APPROVAL_DATE_TIME ( #99, #162 ) ;
#169 = CARTESIAN_POINT ( 'NONE',  ( 2.094888803305880013E-14, 2.437109646825485428E-33, 6.000000000000000000 ) ) ;
#170 = DATE_TIME_ROLE ( 'classification_date' ) ;
#171 = CC_DESIGN_PERSON_AND_ORGANIZATION_ASSIGNMENT ( #13, #166, ( #19 ) ) ;
#172 = EDGE_LOOP ( 'NONE', ( #141 ) ) ;
#173 = CIRCLE ( 'NONE', #8, 0.3250000000000000111 ) ;
#174 = FACE_OUTER_BOUND ( 'NONE', #69, .T. ) ;
#175 = PRODUCT_DEFINITION_SHAPE ( 'NONE', 'NONE',  #158 ) ;
#176 = CARTESIAN_POINT ( 'NONE',  ( 2.094888803305880013E-14, 2.437109646825485428E-33, 6.000000000000000000 ) ) ;
#177 = SECURITY_CLASSIFICATION ( '', '', #181 ) ;
#178 = PERSON_AND_ORGANIZATION ( #184, #111 ) ;
#179 = ADVANCED_FACE ( 'NONE', ( #113, #122 ), #91, .T. ) ;
#180 = PLANE ( 'NONE',  #103 ) ;
#181 = SECURITY_CLASSIFICATION_LEVEL ( 'unclassified' ) ;
#182 = CARTESIAN_POINT ( 'NONE',  ( 6.551374995267824475E-16, -2.297913017237298459E-17, 0.1876388374866284070 ) ) ;
#183 = CALENDAR_DATE ( 2021, 6, 10 ) ;
#184 = PERSON ( 'UNSPECIFIED', 'UNSPECIFIED', 'UNSPECIFIED', ('UNSPECIFIED'), ('UNSPECIFIED'), ('UNSPECIFIED') ) ;
#185 = APPLICATION_PROTOCOL_DEFINITION ( 'international standard', 'config_control_design', 1994, #3 ) ;
#186 = PERSON_AND_ORGANIZATION ( #184, #111 ) ;
#187 = DESIGN_CONTEXT ( 'detailed design', #16, 'design' ) ;
#188 = EDGE_CURVE ( 'NONE', #100, #100, #67, .T. ) ;
#189 = ORIENTED_EDGE ( 'NONE', *, *, #188, .F. ) ;
#190 = CIRCLE ( 'NONE', #153, 0.3249999999999970690 ) ;
#191 = CC_DESIGN_PERSON_AND_ORGANIZATION_ASSIGNMENT ( #20, #80, ( #4 ) ) ;
#192 = EDGE_LOOP ( 'NONE', ( #5 ) ) ;
#193 = CARTESIAN_POINT ( 'NONE',  ( 2.094888803305880013E-14, -7.347880794884119736E-16, 6.000000000000000000 ) ) ;
#194 = PERSON_AND_ORGANIZATION ( #184, #111 ) ;
#195 = DIRECTION ( 'NONE',  ( -4.275831445896958607E-31, -1.000000000000000000, -1.224646799147353207E-16 ) ) ;
#196 = CARTESIAN_POINT ( 'NONE',  ( 1.047444401652940007E-13, -3.673940397442059178E-15, 30.00000000000000000 ) ) ;
#197 = CYLINDRICAL_SURFACE ( 'NONE', #34, 0.3249999999999985123 ) ;
#198 = PERSON_AND_ORGANIZATION_ROLE ( 'creator' ) ;
#199 = DIRECTION ( 'NONE',  ( 0.0000000000000000000, 1.000000000000000000, 0.0000000000000000000 ) ) ;
#200 = PERSON_AND_ORGANIZATION ( #184, #111 ) ;
#201 = CC_DESIGN_APPROVAL ( #6, ( #19 ) ) ;
#202 = CC_DESIGN_DATE_AND_TIME_ASSIGNMENT ( #90, #170, ( #177 ) ) ;
#203 = APPROVAL_ROLE ( '' ) ;
ENDSEC;
END-ISO-10303-21;
