ISO-10303-21;
HEADER;
FILE_DESCRIPTION (( 'STEP AP203' ),
    '1' );
FILE_NAME ('53587.step',
    '2021-10-06T09:22:51',
    ( '' ),
    ( '' ),
    'SwSTEP 2.0',
    'SolidWorks 2019',
    '' );
FILE_SCHEMA (( 'CONFIG_CONTROL_DESIGN' ));
ENDSEC;

DATA;
#1 = APPROVAL_DATE_TIME ( #87, #84 ) ;
#2 = FACE_OUTER_BOUND ( 'NONE', #154, .T. ) ;
#3 = PERSON_AND_ORGANIZATION ( #27, #109 ) ;
#4 = EDGE_LOOP ( 'NONE', ( #177 ) ) ;
#5 = SHAPE_DEFINITION_REPRESENTATION ( #76, #190 ) ;
#6 = VERTEX_POINT ( 'NONE', #108 ) ;
#7 = CLOSED_SHELL ( 'NONE', ( #136, #153, #8 ) ) ;
#8 = ADVANCED_FACE ( 'NONE', ( #129 ), #75, .T. ) ;
#9 = SECURITY_CLASSIFICATION ( '', '', #199 ) ;
#10 = CARTESIAN_POINT ( 'NONE',  ( 7.559278840693657278E-16, 0.3749999999999963363, 0.2165063509461100932 ) ) ;
#11 = FACE_OUTER_BOUND ( 'NONE', #111, .T. ) ;
#12 = CARTESIAN_POINT ( 'NONE',  ( 1.047444401652940007E-13, 2.062169701159999130E-33, 30.00000000000000000 ) ) ;
#13 = DIRECTION ( 'NONE',  ( 5.135813185032679447E-31, 1.000000000000000000, 1.445602896647353461E-16 ) ) ;
#14 = MANIFOLD_SOLID_BREP ( 'Corps-Déplacer/Copier1[1]', #150 ) ;
#15 = ORIENTED_EDGE ( 'NONE', *, *, #174, .T. ) ;
#16 = EDGE_LOOP ( 'NONE', ( #59 ) ) ;
#17 = CC_DESIGN_APPROVAL ( #148, ( #171 ) ) ;
#18 = APPROVAL_STATUS ( 'not_yet_approved' ) ;
#19 = CALENDAR_DATE ( 2021, 6, 10 ) ;
#20 = CARTESIAN_POINT ( 'NONE',  ( 2.094888803305880013E-14, -7.347880794884119736E-16, 6.000000000000000000 ) ) ;
#21 = PERSON_AND_ORGANIZATION ( #27, #109 ) ;
#22 = PERSON_AND_ORGANIZATION_ROLE ( 'design_owner' ) ;
#23 = DIRECTION ( 'NONE',  ( -3.491481338843133355E-15, 1.224646799147353207E-16, -1.000000000000000000 ) ) ;
#24 = CARTESIAN_POINT ( 'NONE',  ( 0.0000000000000000000, 0.0000000000000000000, 0.0000000000000000000 ) ) ;
#25 = DATE_AND_TIME ( #133, #144 ) ;
#26 = DATE_TIME_ROLE ( 'classification_date' ) ;
#27 = PERSON ( 'UNSPECIFIED', 'UNSPECIFIED', 'UNSPECIFIED', ('UNSPECIFIED'), ('UNSPECIFIED'), ('UNSPECIFIED') ) ;
#28 = FACE_OUTER_BOUND ( 'NONE', #123, .T. ) ;
#29 = CARTESIAN_POINT ( 'NONE',  ( 7.559278840693655306E-16, -2.651438096812271601E-17, 0.2165063509461100377 ) ) ;
#30 = DIRECTION ( 'NONE',  ( 0.0000000000000000000, 1.000000000000000000, 0.0000000000000000000 ) ) ;
#31 = CC_DESIGN_PERSON_AND_ORGANIZATION_ASSIGNMENT ( #65, #181, ( #9 ) ) ;
#32 = AXIS2_PLACEMENT_3D ( 'NONE', #45, #48, #97 ) ;
#33 = ORIENTED_EDGE ( 'NONE', *, *, #74, .T. ) ;
#34 = APPROVAL_ROLE ( '' ) ;
#35 = DIRECTION ( 'NONE',  ( 0.0000000000000000000, 0.0000000000000000000, 1.000000000000000000 ) ) ;
#36 = APPLICATION_CONTEXT ( 'configuration controlled 3d designs of mechanical parts and assemblies' ) ;
#37 = FACE_OUTER_BOUND ( 'NONE', #176, .T. ) ;
#38 = DIRECTION ( 'NONE',  ( -3.491481338843133355E-15, 1.224646799147353207E-16, -1.000000000000000000 ) ) ;
#39 = PERSON_AND_ORGANIZATION ( #27, #109 ) ;
#40 = CARTESIAN_POINT ( 'NONE',  ( 2.094888803305880013E-14, 2.812049592490949830E-33, 6.000000000000000000 ) ) ;
#41 = CALENDAR_DATE ( 2021, 6, 10 ) ;
#42 = FACE_BOUND ( 'NONE', #69, .T. ) ;
#43 = LOCAL_TIME ( 11, 22, 51.00000000000000000, #128 ) ;
#44 = APPROVAL_ROLE ( '' ) ;
#45 = CARTESIAN_POINT ( 'NONE',  ( 0.0000000000000000000, 0.0000000000000000000, 0.0000000000000000000 ) ) ;
#46 = CC_DESIGN_PERSON_AND_ORGANIZATION_ASSIGNMENT ( #141, #73, ( #78 ) ) ;
#47 = APPROVAL_PERSON_ORGANIZATION ( #156, #84, #86 ) ;
#48 = DIRECTION ( 'NONE',  ( -3.491481338843133355E-15, 1.224646799147353207E-16, -1.000000000000000000 ) ) ;
#49 = DIRECTION ( 'NONE',  ( 3.491481338843133355E-15, -1.224646799147353207E-16, 1.000000000000000000 ) ) ;
#50 = APPLICATION_CONTEXT ( 'configuration controlled 3d designs of mechanical parts and assemblies' ) ;
#51 = LOCAL_TIME ( 11, 22, 51.00000000000000000, #155 ) ;
#52 = DATE_TIME_ROLE ( 'creation_date' ) ;
#53 = CONICAL_SURFACE ( 'NONE', #70, 0.2750000000000000222, 0.7853981633974512766 ) ;
#54 = MECHANICAL_CONTEXT ( 'NONE', #36, 'mechanical' ) ;
#55 = APPLICATION_PROTOCOL_DEFINITION ( 'international standard', 'config_control_design', 1994, #36 ) ;
#56 =( GEOMETRIC_REPRESENTATION_CONTEXT ( 3 ) GLOBAL_UNCERTAINTY_ASSIGNED_CONTEXT ( ( #194 ) ) GLOBAL_UNIT_ASSIGNED_CONTEXT ( ( #122, #81, #162 ) ) REPRESENTATION_CONTEXT ( 'NONE', 'WORKASPACE' ) );
#57 = CARTESIAN_POINT ( 'NONE',  ( 0.0000000000000000000, 0.0000000000000000000, 0.0000000000000000000 ) ) ;
#58 = DIRECTION ( 'NONE',  ( -3.491481338843133355E-15, 1.224646799147353207E-16, -1.000000000000000000 ) ) ;
#59 = ORIENTED_EDGE ( 'NONE', *, *, #203, .F. ) ;
#60 = AXIS2_PLACEMENT_3D ( 'NONE', #29, #196, #64 ) ;
#61 = CARTESIAN_POINT ( 'NONE',  ( 2.094888803305880013E-14, -7.347880794884119736E-16, 6.000000000000000000 ) ) ;
#62 = DIRECTION ( 'NONE',  ( -4.275831445896958607E-31, -1.000000000000000000, -1.224646799147353207E-16 ) ) ;
#63 = CIRCLE ( 'NONE', #172, 0.2750000000000000222 ) ;
#64 = DIRECTION ( 'NONE',  ( -5.135813185032679447E-31, -1.000000000000000000, -1.445602896647353461E-16 ) ) ;
#65 = PERSON_AND_ORGANIZATION ( #27, #109 ) ;
#66 = AXIS2_PLACEMENT_3D ( 'NONE', #20, #38, #88 ) ;
#67 = EDGE_CURVE ( 'NONE', #163, #163, #143, .T. ) ;
#68 = COORDINATED_UNIVERSAL_TIME_OFFSET ( 1, 0, .AHEAD. ) ;
#69 = EDGE_LOOP ( 'NONE', ( #33 ) ) ;
#70 = AXIS2_PLACEMENT_3D ( 'NONE', #107, #110, #165 ) ;
#71 = APPROVAL_PERSON_ORGANIZATION ( #3, #119, #44 ) ;
#72 = CARTESIAN_POINT ( 'NONE',  ( 1.047444401652940007E-13, -3.673940397442059178E-15, 30.00000000000000000 ) ) ;
#73 = PERSON_AND_ORGANIZATION_ROLE ( 'design_supplier' ) ;
#74 = EDGE_CURVE ( 'NONE', #198, #198, #63, .T. ) ;
#75 = PLANE ( 'NONE',  #200 ) ;
#76 = PRODUCT_DEFINITION_SHAPE ( 'NONE', 'NONE',  #171 ) ;
#77 = CARTESIAN_POINT ( 'NONE',  ( 7.559278840693655306E-16, -2.651438096812271601E-17, 0.2165063509461100377 ) ) ;
#78 = PRODUCT_DEFINITION_FORMATION_WITH_SPECIFIED_SOURCE ( 'ANY', '', #106, .NOT_KNOWN. ) ;
#79 = VERTEX_POINT ( 'NONE', #131 ) ;
#80 = DIRECTION ( 'NONE',  ( 4.275831445896958607E-31, 1.000000000000000000, 1.224646799147353207E-16 ) ) ;
#81 =( NAMED_UNIT ( * ) PLANE_ANGLE_UNIT ( ) SI_UNIT ( $, .RADIAN. ) );
#82 = ORIENTED_EDGE ( 'NONE', *, *, #161, .F. ) ;
#83 = CIRCLE ( 'NONE', #193, 0.3749999999999970579 ) ;
#84 = APPROVAL ( #173, 'UNSPECIFIED' ) ;
#85 = COORDINATED_UNIVERSAL_TIME_OFFSET ( 1, 0, .AHEAD. ) ;
#86 = APPROVAL_ROLE ( '' ) ;
#87 = DATE_AND_TIME ( #19, #51 ) ;
#88 = DIRECTION ( 'NONE',  ( 0.0000000000000000000, 1.000000000000000000, 0.0000000000000000000 ) ) ;
#89 = CIRCLE ( 'NONE', #166, 0.3749999999999963363 ) ;
#90 = AXIS2_PLACEMENT_3D ( 'NONE', #57, #35, #125 ) ;
#91 = PERSON_AND_ORGANIZATION_ROLE ( 'creator' ) ;
#92 = DIRECTION ( 'NONE',  ( 4.275831445896957731E-31, 1.000000000000000000, 1.224646799147352961E-16 ) ) ;
#93 = CC_DESIGN_APPROVAL ( #119, ( #9 ) ) ;
#94 = APPROVAL_DATE_TIME ( #25, #119 ) ;
#95 = ORIENTED_EDGE ( 'NONE', *, *, #67, .F. ) ;
#96 = CARTESIAN_POINT ( 'NONE',  ( 2.094888803305880013E-14, 0.3749999999999963363, 6.000000000000000000 ) ) ;
#97 = DIRECTION ( 'NONE',  ( 4.275831445896957731E-31, 1.000000000000000000, 1.224646799147353207E-16 ) ) ;
#98 = CONICAL_SURFACE ( 'NONE', #60, 0.3749999999999963363, 1.047197551196592746 ) ;
#99 = DIRECTION ( 'NONE',  ( 0.0000000000000000000, 1.000000000000000000, 0.0000000000000000000 ) ) ;
#100 = PLANE ( 'NONE',  #170 ) ;
#101 = FACE_OUTER_BOUND ( 'NONE', #4, .T. ) ;
#102 = EDGE_LOOP ( 'NONE', ( #15 ) ) ;
#103 = APPLICATION_PROTOCOL_DEFINITION ( 'international standard', 'config_control_design', 1994, #50 ) ;
#104 = CC_DESIGN_PERSON_AND_ORGANIZATION_ASSIGNMENT ( #113, #151, ( #171 ) ) ;
#105 = CC_DESIGN_DATE_AND_TIME_ASSIGNMENT ( #201, #52, ( #171 ) ) ;
#106 = PRODUCT ( '53587', '53587', '', ( #54 ) ) ;
#107 = CARTESIAN_POINT ( 'NONE',  ( 1.047444401652940007E-13, -3.673940397442059178E-15, 30.00000000000000000 ) ) ;
#108 = CARTESIAN_POINT ( 'NONE',  ( 1.043952920314096810E-13, 0.3749999999999963363, 29.89999999999999858 ) ) ;
#109 = ORGANIZATION ( 'UNSPECIFIED', 'UNSPECIFIED', '' ) ;
#110 = DIRECTION ( 'NONE',  ( -3.491481338843133355E-15, 1.224646799147353207E-16, -1.000000000000000000 ) ) ;
#111 = EDGE_LOOP ( 'NONE', ( #189 ) ) ;
#112 = PERSON_AND_ORGANIZATION ( #27, #109 ) ;
#113 = PERSON_AND_ORGANIZATION ( #27, #109 ) ;
#114 = EDGE_LOOP ( 'NONE', ( #179 ) ) ;
#115 = DESIGN_CONTEXT ( 'detailed design', #50, 'design' ) ;
#116 = ORIENTED_EDGE ( 'NONE', *, *, #161, .T. ) ;
#117 = ADVANCED_FACE ( 'NONE', ( #2, #37 ), #124, .T. ) ;
#118 = DIRECTION ( 'NONE',  ( -3.491481338843133355E-15, 1.224646799147353207E-16, -1.000000000000000000 ) ) ;
#119 = APPROVAL ( #160, 'UNSPECIFIED' ) ;
#120 = FACE_OUTER_BOUND ( 'NONE', #114, .T. ) ;
#121 = COORDINATED_UNIVERSAL_TIME_OFFSET ( 1, 0, .AHEAD. ) ;
#122 =( LENGTH_UNIT ( ) NAMED_UNIT ( * ) SI_UNIT ( .MILLI., .METRE. ) );
#123 = EDGE_LOOP ( 'NONE', ( #142 ) ) ;
#124 = CYLINDRICAL_SURFACE ( 'NONE', #197, 0.3749999999999985567 ) ;
#125 = DIRECTION ( 'NONE',  ( 1.000000000000000000, 0.0000000000000000000, 0.0000000000000000000 ) ) ;
#126 = EDGE_LOOP ( 'NONE', ( #82 ) ) ;
#127 = CC_DESIGN_SECURITY_CLASSIFICATION ( #9, ( #78 ) ) ;
#128 = COORDINATED_UNIVERSAL_TIME_OFFSET ( 1, 0, .AHEAD. ) ;
#129 = FACE_OUTER_BOUND ( 'NONE', #16, .T. ) ;
#130 = ADVANCED_FACE ( 'NONE', ( #157, #42 ), #53, .T. ) ;
#131 = CARTESIAN_POINT ( 'NONE',  ( 2.094888803305880013E-14, 0.3749999999999963363, 6.000000000000000000 ) ) ;
#132 = ADVANCED_FACE ( 'NONE', ( #28 ), #168, .F. ) ;
#133 = CALENDAR_DATE ( 2021, 6, 10 ) ;
#134 = CIRCLE ( 'NONE', #140, 0.3750000000000000000 ) ;
#135 = DIRECTION ( 'NONE',  ( -3.491481338843133355E-15, 1.224646799147353207E-16, -1.000000000000000000 ) ) ;
#136 = ADVANCED_FACE ( 'NONE', ( #183 ), #98, .T. ) ;
#137 = CALENDAR_DATE ( 2021, 6, 10 ) ;
#138 = PRODUCT_RELATED_PRODUCT_CATEGORY ( 'detail', '', ( #106 ) ) ;
#139 = MANIFOLD_SOLID_BREP ( 'Corps-Déplacer/Copier1[2]', #7 ) ;
#140 = AXIS2_PLACEMENT_3D ( 'NONE', #146, #167, #30 ) ;
#141 = PERSON_AND_ORGANIZATION ( #27, #109 ) ;
#142 = ORIENTED_EDGE ( 'NONE', *, *, #74, .F. ) ;
#143 = CIRCLE ( 'NONE', #66, 0.3749999999999970579 ) ;
#144 = LOCAL_TIME ( 11, 22, 51.00000000000000000, #121 ) ;
#145 = CARTESIAN_POINT ( 'NONE',  ( 1.047444401652940007E-13, 0.2749999999999963030, 30.00000000000000000 ) ) ;
#146 = CARTESIAN_POINT ( 'NONE',  ( 1.043952920314096810E-13, -3.661693929450586610E-15, 29.89999999999999858 ) ) ;
#147 = AXIS2_PLACEMENT_3D ( 'NONE', #12, #118, #80 ) ;
#148 = APPROVAL ( #18, 'UNSPECIFIED' ) ;
#149 = DATE_AND_TIME ( #41, #43 ) ;
#150 = CLOSED_SHELL ( 'NONE', ( #169, #117, #130, #132 ) ) ;
#151 = PERSON_AND_ORGANIZATION_ROLE ( 'creator' ) ;
#152 = LOCAL_TIME ( 11, 22, 51.00000000000000000, #85 ) ;
#153 = ADVANCED_FACE ( 'NONE', ( #11, #101 ), #182, .T. ) ;
#154 = EDGE_LOOP ( 'NONE', ( #95 ) ) ;
#155 = COORDINATED_UNIVERSAL_TIME_OFFSET ( 1, 0, .AHEAD. ) ;
#156 = PERSON_AND_ORGANIZATION ( #27, #109 ) ;
#157 = FACE_OUTER_BOUND ( 'NONE', #126, .T. ) ;
#158 = CALENDAR_DATE ( 2021, 6, 10 ) ;
#159 = DIRECTION ( 'NONE',  ( 0.0000000000000000000, 1.000000000000000000, 0.0000000000000000000 ) ) ;
#160 = APPROVAL_STATUS ( 'not_yet_approved' ) ;
#161 = EDGE_CURVE ( 'NONE', #6, #6, #134, .T. ) ;
#162 =( NAMED_UNIT ( * ) SI_UNIT ( $, .STERADIAN. ) SOLID_ANGLE_UNIT ( ) );
#163 = VERTEX_POINT ( 'NONE', #96 ) ;
#164 = VERTEX_POINT ( 'NONE', #10 ) ;
#165 = DIRECTION ( 'NONE',  ( 0.0000000000000000000, 1.000000000000000000, 0.0000000000000000000 ) ) ;
#166 = AXIS2_PLACEMENT_3D ( 'NONE', #77, #186, #13 ) ;
#167 = DIRECTION ( 'NONE',  ( -3.491481338843133355E-15, 1.224646799147353207E-16, -1.000000000000000000 ) ) ;
#168 = PLANE ( 'NONE',  #147 ) ;
#169 = ADVANCED_FACE ( 'NONE', ( #120 ), #100, .F. ) ;
#170 = AXIS2_PLACEMENT_3D ( 'NONE', #185, #49, #62 ) ;
#171 = PRODUCT_DEFINITION ( 'UNKNOWN', '', #78, #115 ) ;
#172 = AXIS2_PLACEMENT_3D ( 'NONE', #72, #23, #159 ) ;
#173 = APPROVAL_STATUS ( 'not_yet_approved' ) ;
#174 = EDGE_CURVE ( 'NONE', #164, #164, #89, .T. ) ;
#175 = DATE_AND_TIME ( #158, #202 ) ;
#176 = EDGE_LOOP ( 'NONE', ( #116 ) ) ;
#177 = ORIENTED_EDGE ( 'NONE', *, *, #203, .T. ) ;
#178 = CC_DESIGN_PERSON_AND_ORGANIZATION_ASSIGNMENT ( #21, #91, ( #78 ) ) ;
#179 = ORIENTED_EDGE ( 'NONE', *, *, #67, .T. ) ;
#180 = DIRECTION ( 'NONE',  ( -4.275831445896958607E-31, -1.000000000000000000, -1.224646799147353207E-16 ) ) ;
#181 = PERSON_AND_ORGANIZATION_ROLE ( 'classification_officer' ) ;
#182 = CYLINDRICAL_SURFACE ( 'NONE', #32, 0.3749999999999967248 ) ;
#183 = FACE_OUTER_BOUND ( 'NONE', #102, .T. ) ;
#184 = APPROVAL_PERSON_ORGANIZATION ( #112, #148, #34 ) ;
#185 = CARTESIAN_POINT ( 'NONE',  ( 2.094888803305880013E-14, 2.812049592490949830E-33, 6.000000000000000000 ) ) ;
#186 = DIRECTION ( 'NONE',  ( -3.491481338843133355E-15, 1.224646799147353207E-16, -1.000000000000000000 ) ) ;
#187 = CC_DESIGN_APPROVAL ( #84, ( #78 ) ) ;
#188 = CC_DESIGN_PERSON_AND_ORGANIZATION_ASSIGNMENT ( #39, #22, ( #106 ) ) ;
#189 = ORIENTED_EDGE ( 'NONE', *, *, #174, .F. ) ;
#190 = ADVANCED_BREP_SHAPE_REPRESENTATION ( '53587', ( #14, #139, #90 ), #56 ) ;
#191 = DIRECTION ( 'NONE',  ( 3.491481338843133355E-15, -1.224646799147353207E-16, 1.000000000000000000 ) ) ;
#192 = APPROVAL_DATE_TIME ( #175, #148 ) ;
#193 = AXIS2_PLACEMENT_3D ( 'NONE', #61, #135, #99 ) ;
#194 = UNCERTAINTY_MEASURE_WITH_UNIT (LENGTH_MEASURE( 1.000000000000000082E-05 ), #122, 'distance_accuracy_value', 'NONE');
#195 = CC_DESIGN_DATE_AND_TIME_ASSIGNMENT ( #149, #26, ( #9 ) ) ;
#196 = DIRECTION ( 'NONE',  ( 3.491481338843133355E-15, -1.224646799147353207E-16, 1.000000000000000000 ) ) ;
#197 = AXIS2_PLACEMENT_3D ( 'NONE', #24, #58, #92 ) ;
#198 = VERTEX_POINT ( 'NONE', #145 ) ;
#199 = SECURITY_CLASSIFICATION_LEVEL ( 'unclassified' ) ;
#200 = AXIS2_PLACEMENT_3D ( 'NONE', #40, #191, #180 ) ;
#201 = DATE_AND_TIME ( #137, #152 ) ;
#202 = LOCAL_TIME ( 11, 22, 51.00000000000000000, #68 ) ;
#203 = EDGE_CURVE ( 'NONE', #79, #79, #83, .T. ) ;
ENDSEC;
END-ISO-10303-21;
