ISO-10303-21;
HEADER;
FILE_DESCRIPTION (( 'STEP AP203' ),
    '1' );
FILE_NAME ('53586.step',
    '2021-10-06T09:22:51',
    ( '' ),
    ( '' ),
    'SwSTEP 2.0',
    'SolidWorks 2019',
    '' );
FILE_SCHEMA (( 'CONFIG_CONTROL_DESIGN' ));
ENDSEC;

DATA;
#1 = EDGE_LOOP ( 'NONE', ( #53 ) ) ;
#2 = APPROVAL_STATUS ( 'not_yet_approved' ) ;
#3 = PLANE ( 'NONE',  #146 ) ;
#4 = DIRECTION ( 'NONE',  ( -3.491481338843133355E-15, 1.224646799147353207E-16, -1.000000000000000000 ) ) ;
#5 = MANIFOLD_SOLID_BREP ( 'Corps-Déplacer/Copier1[2]', #112 ) ;
#6 = DIRECTION ( 'NONE',  ( 0.0000000000000000000, 1.000000000000000000, 0.0000000000000000000 ) ) ;
#7 = EDGE_CURVE ( 'NONE', #140, #140, #131, .T. ) ;
#8 = MANIFOLD_SOLID_BREP ( 'Corps-Déplacer/Copier1[1]', #188 ) ;
#9 = AXIS2_PLACEMENT_3D ( 'NONE', #166, #23, #128 ) ;
#10 = FACE_OUTER_BOUND ( 'NONE', #20, .T. ) ;
#11 = LOCAL_TIME ( 11, 22, 51.00000000000000000, #165 ) ;
#12 = DATE_AND_TIME ( #106, #107 ) ;
#13 = PERSON_AND_ORGANIZATION_ROLE ( 'design_supplier' ) ;
#14 = AXIS2_PLACEMENT_3D ( 'NONE', #119, #148, #189 ) ;
#15 = CC_DESIGN_PERSON_AND_ORGANIZATION_ASSIGNMENT ( #108, #93, ( #174 ) ) ;
#16 = EDGE_LOOP ( 'NONE', ( #143 ) ) ;
#17 = PERSON_AND_ORGANIZATION ( #145, #152 ) ;
#18 = ORIENTED_EDGE ( 'NONE', *, *, #172, .T. ) ;
#19 = DATE_AND_TIME ( #50, #11 ) ;
#20 = EDGE_LOOP ( 'NONE', ( #177 ) ) ;
#21 = EDGE_CURVE ( 'NONE', #201, #201, #34, .T. ) ;
#22 = EDGE_LOOP ( 'NONE', ( #161 ) ) ;
#23 = DIRECTION ( 'NONE',  ( -3.491481338843133355E-15, 1.224646799147353207E-16, -1.000000000000000000 ) ) ;
#24 = CARTESIAN_POINT ( 'NONE',  ( 2.094888803305880013E-14, -7.347880794884119736E-16, 6.000000000000000000 ) ) ;
#25 = CC_DESIGN_PERSON_AND_ORGANIZATION_ASSIGNMENT ( #160, #71, ( #191 ) ) ;
#26 = FACE_OUTER_BOUND ( 'NONE', #35, .T. ) ;
#27 = APPLICATION_CONTEXT ( 'configuration controlled 3d designs of mechanical parts and assemblies' ) ;
#28 = ADVANCED_BREP_SHAPE_REPRESENTATION ( '53586', ( #8, #5, #115 ), #124 ) ;
#29 = FACE_OUTER_BOUND ( 'NONE', #22, .T. ) ;
#30 = CC_DESIGN_APPROVAL ( #184, ( #76 ) ) ;
#31 = APPROVAL_DATE_TIME ( #158, #184 ) ;
#32 = APPLICATION_PROTOCOL_DEFINITION ( 'international standard', 'config_control_design', 1994, #51 ) ;
#33 = CARTESIAN_POINT ( 'NONE',  ( 0.0000000000000000000, 0.0000000000000000000, 0.0000000000000000000 ) ) ;
#34 = CIRCLE ( 'NONE', #134, 0.2749999999999970801 ) ;
#35 = EDGE_LOOP ( 'NONE', ( #70 ) ) ;
#36 = PERSON_AND_ORGANIZATION ( #145, #152 ) ;
#37 = EDGE_LOOP ( 'NONE', ( #18 ) ) ;
#38 = AXIS2_PLACEMENT_3D ( 'NONE', #113, #121, #198 ) ;
#39 = CYLINDRICAL_SURFACE ( 'NONE', #183, 0.2749999999999966915 ) ;
#40 = DIRECTION ( 'NONE',  ( -3.491481338843133355E-15, 1.224646799147353207E-16, -1.000000000000000000 ) ) ;
#41 = CIRCLE ( 'NONE', #14, 0.2750000000000000222 ) ;
#42 = CARTESIAN_POINT ( 'NONE',  ( 1.047444401652940007E-13, -3.673940397442059178E-15, 30.00000000000000000 ) ) ;
#43 = CIRCLE ( 'NONE', #58, 0.1750000000000000167 ) ;
#44 = DIRECTION ( 'NONE',  ( -4.275831445896958607E-31, -1.000000000000000000, -1.224646799147353207E-16 ) ) ;
#45 = COORDINATED_UNIVERSAL_TIME_OFFSET ( 1, 0, .AHEAD. ) ;
#46 = PERSON_AND_ORGANIZATION_ROLE ( 'design_owner' ) ;
#47 = APPROVAL_ROLE ( '' ) ;
#48 = CC_DESIGN_PERSON_AND_ORGANIZATION_ASSIGNMENT ( #96, #46, ( #100 ) ) ;
#49 = DATE_TIME_ROLE ( 'creation_date' ) ;
#50 = CALENDAR_DATE ( 2021, 6, 10 ) ;
#51 = APPLICATION_CONTEXT ( 'configuration controlled 3d designs of mechanical parts and assemblies' ) ;
#52 = COORDINATED_UNIVERSAL_TIME_OFFSET ( 1, 0, .AHEAD. ) ;
#53 = ORIENTED_EDGE ( 'NONE', *, *, #55, .F. ) ;
#54 = FACE_BOUND ( 'NONE', #37, .T. ) ;
#55 = EDGE_CURVE ( 'NONE', #79, #79, #41, .T. ) ;
#56 = DIRECTION ( 'NONE',  ( 4.275831445896958607E-31, 1.000000000000000000, 1.224646799147353207E-16 ) ) ;
#57 = LOCAL_TIME ( 11, 22, 51.00000000000000000, #153 ) ;
#58 = AXIS2_PLACEMENT_3D ( 'NONE', #42, #168, #104 ) ;
#59 = PLANE ( 'NONE',  #67 ) ;
#60 = CARTESIAN_POINT ( 'NONE',  ( 0.0000000000000000000, 0.0000000000000000000, 0.0000000000000000000 ) ) ;
#61 = PERSON_AND_ORGANIZATION ( #145, #152 ) ;
#62 = DIRECTION ( 'NONE',  ( 1.000000000000000000, 0.0000000000000000000, 0.0000000000000000000 ) ) ;
#63 = ADVANCED_FACE ( 'NONE', ( #133 ), #59, .F. ) ;
#64 = DATE_AND_TIME ( #141, #57 ) ;
#65 = CARTESIAN_POINT ( 'NONE',  ( 2.094888803305880013E-14, 0.2749999999999963030, 6.000000000000000000 ) ) ;
#66 = APPROVAL_ROLE ( '' ) ;
#67 = AXIS2_PLACEMENT_3D ( 'NONE', #194, #88, #56 ) ;
#68 = CC_DESIGN_SECURITY_CLASSIFICATION ( #191, ( #174 ) ) ;
#69 = DATE_AND_TIME ( #74, #178 ) ;
#70 = ORIENTED_EDGE ( 'NONE', *, *, #7, .F. ) ;
#71 = PERSON_AND_ORGANIZATION_ROLE ( 'classification_officer' ) ;
#72 = PRODUCT_RELATED_PRODUCT_CATEGORY ( 'detail', '', ( #100 ) ) ;
#73 = PRODUCT_DEFINITION_SHAPE ( 'NONE', 'NONE',  #76 ) ;
#74 = CALENDAR_DATE ( 2021, 6, 10 ) ;
#75 = CARTESIAN_POINT ( 'NONE',  ( 2.094888803305880013E-14, -7.347880794884119736E-16, 6.000000000000000000 ) ) ;
#76 = PRODUCT_DEFINITION ( 'UNKNOWN', '', #174, #167 ) ;
#77 = DIRECTION ( 'NONE',  ( -3.501690807976839435E-31, -1.000000000000000000, -9.856383386231990715E-17 ) ) ;
#78 = APPROVAL_STATUS ( 'not_yet_approved' ) ;
#79 = VERTEX_POINT ( 'NONE', #120 ) ;
#80 = PERSON_AND_ORGANIZATION_ROLE ( 'creator' ) ;
#81 = EDGE_LOOP ( 'NONE', ( #169 ) ) ;
#82 = ADVANCED_FACE ( 'NONE', ( #170 ), #117, .T. ) ;
#83 = APPROVAL_PERSON_ORGANIZATION ( #95, #102, #66 ) ;
#84 = ORIENTED_EDGE ( 'NONE', *, *, #21, .T. ) ;
#85 = APPROVAL_DATE_TIME ( #69, #175 ) ;
#86 = UNCERTAINTY_MEASURE_WITH_UNIT (LENGTH_MEASURE( 1.000000000000000082E-05 ), #190, 'distance_accuracy_value', 'NONE');
#87 = CC_DESIGN_APPROVAL ( #175, ( #191 ) ) ;
#88 = DIRECTION ( 'NONE',  ( -3.491481338843133355E-15, 1.224646799147353207E-16, -1.000000000000000000 ) ) ;
#89 = DIRECTION ( 'NONE',  ( 4.275831445896957731E-31, 1.000000000000000000, 1.224646799147353207E-16 ) ) ;
#90 = CARTESIAN_POINT ( 'NONE',  ( 5.543471149841994629E-16, -1.944387937662325626E-17, 0.1587713240271468040 ) ) ;
#91 = CARTESIAN_POINT ( 'NONE',  ( 0.0000000000000000000, 0.0000000000000000000, 0.0000000000000000000 ) ) ;
#92 = DIRECTION ( 'NONE',  ( 0.0000000000000000000, 0.0000000000000000000, 1.000000000000000000 ) ) ;
#93 = PERSON_AND_ORGANIZATION_ROLE ( 'creator' ) ;
#94 = CALENDAR_DATE ( 2021, 6, 10 ) ;
#95 = PERSON_AND_ORGANIZATION ( #145, #152 ) ;
#96 = PERSON_AND_ORGANIZATION ( #145, #152 ) ;
#97 = AXIS2_PLACEMENT_3D ( 'NONE', #118, #114, #171 ) ;
#98 = DIRECTION ( 'NONE',  ( -3.491481338843133355E-15, 1.224646799147353207E-16, -1.000000000000000000 ) ) ;
#99 = DIRECTION ( 'NONE',  ( 4.275831445896958607E-31, 1.000000000000000000, 1.224646799147353454E-16 ) ) ;
#100 = PRODUCT ( '53586', '53586', '', ( #125 ) ) ;
#101 = CARTESIAN_POINT ( 'NONE',  ( 2.094888803305880013E-14, 2.062169701160021368E-33, 6.000000000000000000 ) ) ;
#102 = APPROVAL ( #203, 'UNSPECIFIED' ) ;
#103 = CC_DESIGN_DATE_AND_TIME_ASSIGNMENT ( #19, #149, ( #191 ) ) ;
#104 = DIRECTION ( 'NONE',  ( 0.0000000000000000000, 1.000000000000000000, 0.0000000000000000000 ) ) ;
#105 = FACE_OUTER_BOUND ( 'NONE', #111, .T. ) ;
#106 = CALENDAR_DATE ( 2021, 6, 10 ) ;
#107 = LOCAL_TIME ( 11, 22, 51.00000000000000000, #45 ) ;
#108 = PERSON_AND_ORGANIZATION ( #145, #152 ) ;
#109 = VERTEX_POINT ( 'NONE', #155 ) ;
#110 =( NAMED_UNIT ( * ) PLANE_ANGLE_UNIT ( ) SI_UNIT ( $, .RADIAN. ) );
#111 = EDGE_LOOP ( 'NONE', ( #84 ) ) ;
#112 = CLOSED_SHELL ( 'NONE', ( #162, #150, #82 ) ) ;
#113 = CARTESIAN_POINT ( 'NONE',  ( 1.047444401652940007E-13, -3.673940397442059178E-15, 30.00000000000000000 ) ) ;
#114 = DIRECTION ( 'NONE',  ( 3.491481338843133355E-15, -1.224646799147353207E-16, 1.000000000000000000 ) ) ;
#115 = AXIS2_PLACEMENT_3D ( 'NONE', #33, #92, #62 ) ;
#116 = CC_DESIGN_APPROVAL ( #102, ( #174 ) ) ;
#117 = PLANE ( 'NONE',  #97 ) ;
#118 = CARTESIAN_POINT ( 'NONE',  ( 2.094888803305880013E-14, 2.062169701160021368E-33, 6.000000000000000000 ) ) ;
#119 = CARTESIAN_POINT ( 'NONE',  ( 1.043952920314096810E-13, -3.661693929450586610E-15, 29.89999999999999858 ) ) ;
#120 = CARTESIAN_POINT ( 'NONE',  ( 1.043952920314096810E-13, 0.2749999999999963030, 29.89999999999999858 ) ) ;
#121 = DIRECTION ( 'NONE',  ( -3.491481338843133355E-15, 1.224646799147353207E-16, -1.000000000000000000 ) ) ;
#122 = CARTESIAN_POINT ( 'NONE',  ( 2.094888803305880013E-14, 0.2749999999999963030, 6.000000000000000000 ) ) ;
#123 = EDGE_LOOP ( 'NONE', ( #192 ) ) ;
#124 =( GEOMETRIC_REPRESENTATION_CONTEXT ( 3 ) GLOBAL_UNCERTAINTY_ASSIGNED_CONTEXT ( ( #86 ) ) GLOBAL_UNIT_ASSIGNED_CONTEXT ( ( #190, #110, #179 ) ) REPRESENTATION_CONTEXT ( 'NONE', 'WORKASPACE' ) );
#125 = MECHANICAL_CONTEXT ( 'NONE', #51, 'mechanical' ) ;
#126 = CONICAL_SURFACE ( 'NONE', #156, 0.2749999999999963030, 1.047197551196592746 ) ;
#127 = APPROVAL_PERSON_ORGANIZATION ( #36, #175, #180 ) ;
#128 = DIRECTION ( 'NONE',  ( 3.501690807976839435E-31, 1.000000000000000000, 9.856383386231990715E-17 ) ) ;
#129 = SHAPE_DEFINITION_REPRESENTATION ( #73, #28 ) ;
#130 = DIRECTION ( 'NONE',  ( 3.491481338843133355E-15, -1.224646799147353207E-16, 1.000000000000000000 ) ) ;
#131 = CIRCLE ( 'NONE', #159, 0.2749999999999970801 ) ;
#132 = DIRECTION ( 'NONE',  ( 0.0000000000000000000, 1.000000000000000000, 0.0000000000000000000 ) ) ;
#133 = FACE_OUTER_BOUND ( 'NONE', #81, .T. ) ;
#134 = AXIS2_PLACEMENT_3D ( 'NONE', #24, #40, #6 ) ;
#135 = FACE_OUTER_BOUND ( 'NONE', #16, .T. ) ;
#136 = ADVANCED_FACE ( 'NONE', ( #29 ), #3, .F. ) ;
#137 = APPROVAL_DATE_TIME ( #12, #102 ) ;
#138 = APPLICATION_PROTOCOL_DEFINITION ( 'international standard', 'config_control_design', 1994, #27 ) ;
#139 = CC_DESIGN_PERSON_AND_ORGANIZATION_ASSIGNMENT ( #154, #13, ( #174 ) ) ;
#140 = VERTEX_POINT ( 'NONE', #122 ) ;
#141 = CALENDAR_DATE ( 2021, 6, 10 ) ;
#142 = LOCAL_TIME ( 11, 22, 51.00000000000000000, #199 ) ;
#143 = ORIENTED_EDGE ( 'NONE', *, *, #55, .T. ) ;
#144 = CC_DESIGN_DATE_AND_TIME_ASSIGNMENT ( #64, #49, ( #76 ) ) ;
#145 = PERSON ( 'UNSPECIFIED', 'UNSPECIFIED', 'UNSPECIFIED', ('UNSPECIFIED'), ('UNSPECIFIED'), ('UNSPECIFIED') ) ;
#146 = AXIS2_PLACEMENT_3D ( 'NONE', #101, #151, #44 ) ;
#147 = CC_DESIGN_PERSON_AND_ORGANIZATION_ASSIGNMENT ( #17, #80, ( #76 ) ) ;
#148 = DIRECTION ( 'NONE',  ( -3.491481338843133355E-15, 1.224646799147353207E-16, -1.000000000000000000 ) ) ;
#149 = DATE_TIME_ROLE ( 'classification_date' ) ;
#150 = ADVANCED_FACE ( 'NONE', ( #187, #105 ), #39, .T. ) ;
#151 = DIRECTION ( 'NONE',  ( 3.491481338843133355E-15, -1.224646799147353207E-16, 1.000000000000000000 ) ) ;
#152 = ORGANIZATION ( 'UNSPECIFIED', 'UNSPECIFIED', '' ) ;
#153 = COORDINATED_UNIVERSAL_TIME_OFFSET ( 1, 0, .AHEAD. ) ;
#154 = PERSON_AND_ORGANIZATION ( #145, #152 ) ;
#155 = CARTESIAN_POINT ( 'NONE',  ( 1.047444401652940007E-13, 0.1749999999999963252, 30.00000000000000000 ) ) ;
#156 = AXIS2_PLACEMENT_3D ( 'NONE', #90, #130, #77 ) ;
#157 = VERTEX_POINT ( 'NONE', #173 ) ;
#158 = DATE_AND_TIME ( #94, #142 ) ;
#159 = AXIS2_PLACEMENT_3D ( 'NONE', #75, #185, #132 ) ;
#160 = PERSON_AND_ORGANIZATION ( #145, #152 ) ;
#161 = ORIENTED_EDGE ( 'NONE', *, *, #7, .T. ) ;
#162 = ADVANCED_FACE ( 'NONE', ( #10 ), #126, .T. ) ;
#163 = CIRCLE ( 'NONE', #9, 0.2749999999999963030 ) ;
#164 = SECURITY_CLASSIFICATION_LEVEL ( 'unclassified' ) ;
#165 = COORDINATED_UNIVERSAL_TIME_OFFSET ( 1, 0, .AHEAD. ) ;
#166 = CARTESIAN_POINT ( 'NONE',  ( 5.543471149841994629E-16, -1.944387937662325626E-17, 0.1587713240271468040 ) ) ;
#167 = DESIGN_CONTEXT ( 'detailed design', #27, 'design' ) ;
#168 = DIRECTION ( 'NONE',  ( -3.491481338843133355E-15, 1.224646799147353207E-16, -1.000000000000000000 ) ) ;
#169 = ORIENTED_EDGE ( 'NONE', *, *, #172, .F. ) ;
#170 = FACE_OUTER_BOUND ( 'NONE', #123, .T. ) ;
#171 = DIRECTION ( 'NONE',  ( -4.275831445896958607E-31, -1.000000000000000000, -1.224646799147353207E-16 ) ) ;
#172 = EDGE_CURVE ( 'NONE', #109, #109, #43, .T. ) ;
#173 = CARTESIAN_POINT ( 'NONE',  ( 5.543471149841994629E-16, 0.2749999999999963030, 0.1587713240271468040 ) ) ;
#174 = PRODUCT_DEFINITION_FORMATION_WITH_SPECIFIED_SOURCE ( 'ANY', '', #100, .NOT_KNOWN. ) ;
#175 = APPROVAL ( #2, 'UNSPECIFIED' ) ;
#176 = AXIS2_PLACEMENT_3D ( 'NONE', #60, #98, #89 ) ;
#177 = ORIENTED_EDGE ( 'NONE', *, *, #195, .T. ) ;
#178 = LOCAL_TIME ( 11, 22, 51.00000000000000000, #52 ) ;
#179 =( NAMED_UNIT ( * ) SI_UNIT ( $, .STERADIAN. ) SOLID_ANGLE_UNIT ( ) );
#180 = APPROVAL_ROLE ( '' ) ;
#181 = ADVANCED_FACE ( 'NONE', ( #26, #135 ), #197, .T. ) ;
#182 = ORIENTED_EDGE ( 'NONE', *, *, #195, .F. ) ;
#183 = AXIS2_PLACEMENT_3D ( 'NONE', #91, #4, #99 ) ;
#184 = APPROVAL ( #78, 'UNSPECIFIED' ) ;
#185 = DIRECTION ( 'NONE',  ( -3.491481338843133355E-15, 1.224646799147353207E-16, -1.000000000000000000 ) ) ;
#186 = EDGE_LOOP ( 'NONE', ( #182 ) ) ;
#187 = FACE_OUTER_BOUND ( 'NONE', #186, .T. ) ;
#188 = CLOSED_SHELL ( 'NONE', ( #136, #181, #202, #63 ) ) ;
#189 = DIRECTION ( 'NONE',  ( 0.0000000000000000000, 1.000000000000000000, 0.0000000000000000000 ) ) ;
#190 =( LENGTH_UNIT ( ) NAMED_UNIT ( * ) SI_UNIT ( .MILLI., .METRE. ) );
#191 = SECURITY_CLASSIFICATION ( '', '', #164 ) ;
#192 = ORIENTED_EDGE ( 'NONE', *, *, #21, .F. ) ;
#193 = FACE_OUTER_BOUND ( 'NONE', #1, .T. ) ;
#194 = CARTESIAN_POINT ( 'NONE',  ( 1.047444401652940007E-13, 1.312289809829070327E-33, 30.00000000000000000 ) ) ;
#195 = EDGE_CURVE ( 'NONE', #157, #157, #163, .T. ) ;
#196 = CONICAL_SURFACE ( 'NONE', #38, 0.1750000000000000167, 0.7853981633974512766 ) ;
#197 = CYLINDRICAL_SURFACE ( 'NONE', #176, 0.2749999999999985789 ) ;
#198 = DIRECTION ( 'NONE',  ( 0.0000000000000000000, 1.000000000000000000, 0.0000000000000000000 ) ) ;
#199 = COORDINATED_UNIVERSAL_TIME_OFFSET ( 1, 0, .AHEAD. ) ;
#200 = APPROVAL_PERSON_ORGANIZATION ( #61, #184, #47 ) ;
#201 = VERTEX_POINT ( 'NONE', #65 ) ;
#202 = ADVANCED_FACE ( 'NONE', ( #193, #54 ), #196, .T. ) ;
#203 = APPROVAL_STATUS ( 'not_yet_approved' ) ;
ENDSEC;
END-ISO-10303-21;
