ISO-10303-21;
HEADER;
FILE_DESCRIPTION (( 'STEP AP203' ),
    '1' );
FILE_NAME ('53585.step',
    '2021-10-06T09:22:50',
    ( '' ),
    ( '' ),
    'SwSTEP 2.0',
    'SolidWorks 2019',
    '' );
FILE_SCHEMA (( 'CONFIG_CONTROL_DESIGN' ));
ENDSEC;

DATA;
#1 = APPLICATION_PROTOCOL_DEFINITION ( 'international standard', 'config_control_design', 1994, #23 ) ;
#2 = CONICAL_SURFACE ( 'NONE', #121, 0.1500000000000000777, 0.7853981633974512766 ) ;
#3 = CC_DESIGN_APPROVAL ( #68, ( #84 ) ) ;
#4 = CYLINDRICAL_SURFACE ( 'NONE', #31, 0.2499999999999966971 ) ;
#5 = CIRCLE ( 'NONE', #115, 0.2499999999999970857 ) ;
#6 = CARTESIAN_POINT ( 'NONE',  ( 1.043952920314096810E-13, 0.2499999999999963640, 29.89999999999999858 ) ) ;
#7 = CC_DESIGN_PERSON_AND_ORGANIZATION_ASSIGNMENT ( #50, #73, ( #113 ) ) ;
#8 = CARTESIAN_POINT ( 'NONE',  ( 1.047444401652940007E-13, -3.673940397442059178E-15, 30.00000000000000000 ) ) ;
#9 = AXIS2_PLACEMENT_3D ( 'NONE', #133, #200, #170 ) ;
#10 = EDGE_LOOP ( 'NONE', ( #11 ) ) ;
#11 = ORIENTED_EDGE ( 'NONE', *, *, #191, .T. ) ;
#12 =( GEOMETRIC_REPRESENTATION_CONTEXT ( 3 ) GLOBAL_UNCERTAINTY_ASSIGNED_CONTEXT ( ( #83 ) ) GLOBAL_UNIT_ASSIGNED_CONTEXT ( ( #188, #155, #89 ) ) REPRESENTATION_CONTEXT ( 'NONE', 'WORKASPACE' ) );
#13 = DIRECTION ( 'NONE',  ( -4.275831445896958607E-31, -1.000000000000000000, -1.224646799147353207E-16 ) ) ;
#14 = APPLICATION_PROTOCOL_DEFINITION ( 'international standard', 'config_control_design', 1994, #139 ) ;
#15 = EDGE_LOOP ( 'NONE', ( #148 ) ) ;
#16 = EDGE_LOOP ( 'NONE', ( #39 ) ) ;
#17 = DIRECTION ( 'NONE',  ( 0.0000000000000000000, 0.0000000000000000000, 1.000000000000000000 ) ) ;
#18 = APPROVAL_PERSON_ORGANIZATION ( #45, #68, #75 ) ;
#19 = DIRECTION ( 'NONE',  ( 0.0000000000000000000, 1.000000000000000000, 0.0000000000000000000 ) ) ;
#20 = ADVANCED_FACE ( 'NONE', ( #198 ), #180, .F. ) ;
#21 = DATE_AND_TIME ( #159, #46 ) ;
#22 = PLANE ( 'NONE',  #63 ) ;
#23 = APPLICATION_CONTEXT ( 'configuration controlled 3d designs of mechanical parts and assemblies' ) ;
#24 = FACE_BOUND ( 'NONE', #100, .T. ) ;
#25 = DATE_AND_TIME ( #102, #71 ) ;
#26 = LOCAL_TIME ( 11, 22, 50.00000000000000000, #179 ) ;
#27 = CARTESIAN_POINT ( 'NONE',  ( 1.043952920314096810E-13, -3.661693929450586610E-15, 29.89999999999999858 ) ) ;
#28 = EDGE_LOOP ( 'NONE', ( #119 ) ) ;
#29 = CALENDAR_DATE ( 2021, 6, 10 ) ;
#30 = CARTESIAN_POINT ( 'NONE',  ( 2.094888803305880013E-14, -7.347880794884119736E-16, 6.000000000000000000 ) ) ;
#31 = AXIS2_PLACEMENT_3D ( 'NONE', #111, #112, #175 ) ;
#32 = ADVANCED_FACE ( 'NONE', ( #197 ), #22, .T. ) ;
#33 = AXIS2_PLACEMENT_3D ( 'NONE', #30, #79, #108 ) ;
#34 = ADVANCED_FACE ( 'NONE', ( #88, #24 ), #2, .T. ) ;
#35 = LOCAL_TIME ( 11, 22, 50.00000000000000000, #134 ) ;
#36 = VERTEX_POINT ( 'NONE', #165 ) ;
#37 = PERSON_AND_ORGANIZATION_ROLE ( 'design_supplier' ) ;
#38 = ADVANCED_FACE ( 'NONE', ( #74 ), #195, .T. ) ;
#39 = ORIENTED_EDGE ( 'NONE', *, *, #191, .F. ) ;
#40 = ORIENTED_EDGE ( 'NONE', *, *, #114, .F. ) ;
#41 = DATE_TIME_ROLE ( 'classification_date' ) ;
#42 = CALENDAR_DATE ( 2021, 6, 10 ) ;
#43 = DIRECTION ( 'NONE',  ( -3.491481338843133355E-15, 1.224646799147353207E-16, -1.000000000000000000 ) ) ;
#44 = EDGE_LOOP ( 'NONE', ( #70 ) ) ;
#45 = PERSON_AND_ORGANIZATION ( #48, #158 ) ;
#46 = LOCAL_TIME ( 11, 22, 50.00000000000000000, #116 ) ;
#47 = AXIS2_PLACEMENT_3D ( 'NONE', #8, #156, #19 ) ;
#48 = PERSON ( 'UNSPECIFIED', 'UNSPECIFIED', 'UNSPECIFIED', ('UNSPECIFIED'), ('UNSPECIFIED'), ('UNSPECIFIED') ) ;
#49 = DIRECTION ( 'NONE',  ( -4.275831445896958607E-31, -1.000000000000000000, -1.224646799147353207E-16 ) ) ;
#50 = PERSON_AND_ORGANIZATION ( #48, #158 ) ;
#51 = DIRECTION ( 'NONE',  ( 3.491481338843133355E-15, -1.224646799147353207E-16, 1.000000000000000000 ) ) ;
#52 = CC_DESIGN_SECURITY_CLASSIFICATION ( #157, ( #84 ) ) ;
#53 = CIRCLE ( 'NONE', #33, 0.2499999999999970857 ) ;
#54 = CYLINDRICAL_SURFACE ( 'NONE', #57, 0.2499999999999985845 ) ;
#55 = FACE_OUTER_BOUND ( 'NONE', #77, .T. ) ;
#56 = APPROVAL_DATE_TIME ( #21, #143 ) ;
#57 = AXIS2_PLACEMENT_3D ( 'NONE', #141, #190, #192 ) ;
#58 = VERTEX_POINT ( 'NONE', #6 ) ;
#59 = VERTEX_POINT ( 'NONE', #103 ) ;
#60 = PRODUCT ( '53585', '53585', '', ( #106 ) ) ;
#61 = CARTESIAN_POINT ( 'NONE',  ( 2.094888803305880013E-14, 0.2499999999999963085, 6.000000000000000000 ) ) ;
#62 = PERSON_AND_ORGANIZATION ( #48, #158 ) ;
#63 = AXIS2_PLACEMENT_3D ( 'NONE', #166, #105, #13 ) ;
#64 = CC_DESIGN_PERSON_AND_ORGANIZATION_ASSIGNMENT ( #69, #87, ( #157 ) ) ;
#65 = AXIS2_PLACEMENT_3D ( 'NONE', #118, #17, #122 ) ;
#66 = DESIGN_CONTEXT ( 'detailed design', #23, 'design' ) ;
#67 = FACE_OUTER_BOUND ( 'NONE', #28, .T. ) ;
#68 = APPROVAL ( #90, 'UNSPECIFIED' ) ;
#69 = PERSON_AND_ORGANIZATION ( #48, #158 ) ;
#70 = ORIENTED_EDGE ( 'NONE', *, *, #181, .F. ) ;
#71 = LOCAL_TIME ( 11, 22, 50.00000000000000000, #136 ) ;
#72 = DIRECTION ( 'NONE',  ( 0.0000000000000000000, 1.000000000000000000, 0.0000000000000000000 ) ) ;
#73 = PERSON_AND_ORGANIZATION_ROLE ( 'creator' ) ;
#74 = FACE_OUTER_BOUND ( 'NONE', #10, .T. ) ;
#75 = APPROVAL_ROLE ( '' ) ;
#76 = APPROVAL_STATUS ( 'not_yet_approved' ) ;
#77 = EDGE_LOOP ( 'NONE', ( #196 ) ) ;
#78 = EDGE_CURVE ( 'NONE', #58, #58, #91, .T. ) ;
#79 = DIRECTION ( 'NONE',  ( -3.491481338843133355E-15, 1.224646799147353207E-16, -1.000000000000000000 ) ) ;
#80 = MANIFOLD_SOLID_BREP ( 'Corps-Déplacer/Copier1[1]', #185 ) ;
#81 = CARTESIAN_POINT ( 'NONE',  ( 2.094888803305880013E-14, -7.347880794884119736E-16, 6.000000000000000000 ) ) ;
#82 = CARTESIAN_POINT ( 'NONE',  ( 5.039519227129079214E-16, -1.767625397874839209E-17, 0.1443375672974059887 ) ) ;
#83 = UNCERTAINTY_MEASURE_WITH_UNIT (LENGTH_MEASURE( 1.000000000000000082E-05 ), #188, 'distance_accuracy_value', 'NONE');
#84 = PRODUCT_DEFINITION_FORMATION_WITH_SPECIFIED_SOURCE ( 'ANY', '', #60, .NOT_KNOWN. ) ;
#85 = FACE_OUTER_BOUND ( 'NONE', #16, .T. ) ;
#86 = APPROVAL_STATUS ( 'not_yet_approved' ) ;
#87 = PERSON_AND_ORGANIZATION_ROLE ( 'classification_officer' ) ;
#88 = FACE_OUTER_BOUND ( 'NONE', #182, .T. ) ;
#89 =( NAMED_UNIT ( * ) SI_UNIT ( $, .STERADIAN. ) SOLID_ANGLE_UNIT ( ) );
#90 = APPROVAL_STATUS ( 'not_yet_approved' ) ;
#91 = CIRCLE ( 'NONE', #142, 0.2500000000000000555 ) ;
#92 = DIRECTION ( 'NONE',  ( -3.491481338843133355E-15, 1.224646799147353207E-16, -1.000000000000000000 ) ) ;
#93 = PERSON_AND_ORGANIZATION_ROLE ( 'creator' ) ;
#94 = APPROVAL_DATE_TIME ( #137, #186 ) ;
#95 = VERTEX_POINT ( 'NONE', #110 ) ;
#96 = FACE_OUTER_BOUND ( 'NONE', #15, .T. ) ;
#97 = CC_DESIGN_DATE_AND_TIME_ASSIGNMENT ( #25, #173, ( #113 ) ) ;
#98 = LOCAL_TIME ( 11, 22, 50.00000000000000000, #184 ) ;
#99 = CARTESIAN_POINT ( 'NONE',  ( 1.047444401652940007E-13, 1.124819836996338468E-33, 30.00000000000000000 ) ) ;
#100 = EDGE_LOOP ( 'NONE', ( #130 ) ) ;
#101 = ORIENTED_EDGE ( 'NONE', *, *, #78, .F. ) ;
#102 = CALENDAR_DATE ( 2021, 6, 10 ) ;
#103 = CARTESIAN_POINT ( 'NONE',  ( 2.094888803305880013E-14, 0.2499999999999963085, 6.000000000000000000 ) ) ;
#104 = AXIS2_PLACEMENT_3D ( 'NONE', #82, #43, #169 ) ;
#105 = DIRECTION ( 'NONE',  ( 3.491481338843133355E-15, -1.224646799147353207E-16, 1.000000000000000000 ) ) ;
#106 = MECHANICAL_CONTEXT ( 'NONE', #139, 'mechanical' ) ;
#107 = CC_DESIGN_PERSON_AND_ORGANIZATION_ASSIGNMENT ( #120, #37, ( #84 ) ) ;
#108 = DIRECTION ( 'NONE',  ( 0.0000000000000000000, 1.000000000000000000, 0.0000000000000000000 ) ) ;
#109 = DIRECTION ( 'NONE',  ( 0.0000000000000000000, 1.000000000000000000, 0.0000000000000000000 ) ) ;
#110 = CARTESIAN_POINT ( 'NONE',  ( 5.039519227129080200E-16, 0.2499999999999963085, 0.1443375672974060164 ) ) ;
#111 = CARTESIAN_POINT ( 'NONE',  ( 0.0000000000000000000, 0.0000000000000000000, 0.0000000000000000000 ) ) ;
#112 = DIRECTION ( 'NONE',  ( -3.491481338843133355E-15, 1.224646799147353207E-16, -1.000000000000000000 ) ) ;
#113 = PRODUCT_DEFINITION ( 'UNKNOWN', '', #84, #66 ) ;
#114 = EDGE_CURVE ( 'NONE', #36, #36, #128, .T. ) ;
#115 = AXIS2_PLACEMENT_3D ( 'NONE', #81, #138, #124 ) ;
#116 = COORDINATED_UNIVERSAL_TIME_OFFSET ( 1, 0, .AHEAD. ) ;
#117 = DIRECTION ( 'NONE',  ( -3.491481338843133355E-15, 1.224646799147353207E-16, -1.000000000000000000 ) ) ;
#118 = CARTESIAN_POINT ( 'NONE',  ( 0.0000000000000000000, 0.0000000000000000000, 0.0000000000000000000 ) ) ;
#119 = ORIENTED_EDGE ( 'NONE', *, *, #125, .F. ) ;
#120 = PERSON_AND_ORGANIZATION ( #48, #158 ) ;
#121 = AXIS2_PLACEMENT_3D ( 'NONE', #150, #117, #72 ) ;
#122 = DIRECTION ( 'NONE',  ( 1.000000000000000000, 0.0000000000000000000, 0.0000000000000000000 ) ) ;
#123 = CC_DESIGN_APPROVAL ( #186, ( #113 ) ) ;
#124 = DIRECTION ( 'NONE',  ( 0.0000000000000000000, 1.000000000000000000, 0.0000000000000000000 ) ) ;
#125 = EDGE_CURVE ( 'NONE', #59, #59, #5, .T. ) ;
#126 = FACE_OUTER_BOUND ( 'NONE', #131, .T. ) ;
#127 = DATE_AND_TIME ( #149, #26 ) ;
#128 = CIRCLE ( 'NONE', #47, 0.1500000000000000777 ) ;
#129 = CC_DESIGN_PERSON_AND_ORGANIZATION_ASSIGNMENT ( #62, #93, ( #84 ) ) ;
#130 = ORIENTED_EDGE ( 'NONE', *, *, #114, .T. ) ;
#131 = EDGE_LOOP ( 'NONE', ( #152 ) ) ;
#132 = PERSON_AND_ORGANIZATION_ROLE ( 'design_owner' ) ;
#133 = CARTESIAN_POINT ( 'NONE',  ( 5.039519227129079214E-16, -1.767625397874839209E-17, 0.1443375672974059887 ) ) ;
#134 = COORDINATED_UNIVERSAL_TIME_OFFSET ( 1, 0, .AHEAD. ) ;
#135 = EDGE_LOOP ( 'NONE', ( #40 ) ) ;
#136 = COORDINATED_UNIVERSAL_TIME_OFFSET ( 1, 0, .AHEAD. ) ;
#137 = DATE_AND_TIME ( #42, #98 ) ;
#138 = DIRECTION ( 'NONE',  ( -3.491481338843133355E-15, 1.224646799147353207E-16, -1.000000000000000000 ) ) ;
#139 = APPLICATION_CONTEXT ( 'configuration controlled 3d designs of mechanical parts and assemblies' ) ;
#140 = MANIFOLD_SOLID_BREP ( 'Corps-Déplacer/Copier1[2]', #172 ) ;
#141 = CARTESIAN_POINT ( 'NONE',  ( 0.0000000000000000000, 0.0000000000000000000, 0.0000000000000000000 ) ) ;
#142 = AXIS2_PLACEMENT_3D ( 'NONE', #27, #92, #109 ) ;
#143 = APPROVAL ( #86, 'UNSPECIFIED' ) ;
#144 = ADVANCED_FACE ( 'NONE', ( #67, #96 ), #54, .T. ) ;
#145 = SHAPE_DEFINITION_REPRESENTATION ( #189, #162 ) ;
#146 = ADVANCED_FACE ( 'NONE', ( #85, #55 ), #4, .T. ) ;
#147 = AXIS2_PLACEMENT_3D ( 'NONE', #99, #163, #164 ) ;
#148 = ORIENTED_EDGE ( 'NONE', *, *, #78, .T. ) ;
#149 = CALENDAR_DATE ( 2021, 6, 10 ) ;
#150 = CARTESIAN_POINT ( 'NONE',  ( 1.047444401652940007E-13, -3.673940397442059178E-15, 30.00000000000000000 ) ) ;
#151 = APPROVAL_PERSON_ORGANIZATION ( #161, #143, #193 ) ;
#152 = ORIENTED_EDGE ( 'NONE', *, *, #125, .T. ) ;
#153 = PERSON_AND_ORGANIZATION ( #48, #158 ) ;
#154 = ADVANCED_FACE ( 'NONE', ( #126 ), #178, .F. ) ;
#155 =( NAMED_UNIT ( * ) PLANE_ANGLE_UNIT ( ) SI_UNIT ( $, .RADIAN. ) );
#156 = DIRECTION ( 'NONE',  ( -3.491481338843133355E-15, 1.224646799147353207E-16, -1.000000000000000000 ) ) ;
#157 = SECURITY_CLASSIFICATION ( '', '', #177 ) ;
#158 = ORGANIZATION ( 'UNSPECIFIED', 'UNSPECIFIED', '' ) ;
#159 = CALENDAR_DATE ( 2021, 6, 10 ) ;
#160 = PRODUCT_RELATED_PRODUCT_CATEGORY ( 'detail', '', ( #60 ) ) ;
#161 = PERSON_AND_ORGANIZATION ( #48, #158 ) ;
#162 = ADVANCED_BREP_SHAPE_REPRESENTATION ( '53585', ( #80, #140, #65 ), #12 ) ;
#163 = DIRECTION ( 'NONE',  ( -3.491481338843133355E-15, 1.224646799147353207E-16, -1.000000000000000000 ) ) ;
#164 = DIRECTION ( 'NONE',  ( 4.275831445896958607E-31, 1.000000000000000000, 1.224646799147353207E-16 ) ) ;
#165 = CARTESIAN_POINT ( 'NONE',  ( 1.047444401652940007E-13, 0.1499999999999963862, 30.00000000000000000 ) ) ;
#166 = CARTESIAN_POINT ( 'NONE',  ( 2.094888803305880013E-14, 1.874699728327288825E-33, 6.000000000000000000 ) ) ;
#167 = PERSON_AND_ORGANIZATION ( #48, #158 ) ;
#168 = CIRCLE ( 'NONE', #104, 0.2499999999999963085 ) ;
#169 = DIRECTION ( 'NONE',  ( 3.851859888774528634E-31, 1.000000000000000000, 1.084202172485520458E-16 ) ) ;
#170 = DIRECTION ( 'NONE',  ( -3.851859888774528634E-31, -1.000000000000000000, -1.084202172485520458E-16 ) ) ;
#171 = APPROVAL_DATE_TIME ( #201, #68 ) ;
#172 = CLOSED_SHELL ( 'NONE', ( #38, #146, #32 ) ) ;
#173 = DATE_TIME_ROLE ( 'creation_date' ) ;
#174 = CC_DESIGN_PERSON_AND_ORGANIZATION_ASSIGNMENT ( #167, #132, ( #60 ) ) ;
#175 = DIRECTION ( 'NONE',  ( 4.275831445896959482E-31, 1.000000000000000000, 1.224646799147353207E-16 ) ) ;
#176 = CC_DESIGN_APPROVAL ( #143, ( #157 ) ) ;
#177 = SECURITY_CLASSIFICATION_LEVEL ( 'unclassified' ) ;
#178 = PLANE ( 'NONE',  #199 ) ;
#179 = COORDINATED_UNIVERSAL_TIME_OFFSET ( 1, 0, .AHEAD. ) ;
#180 = PLANE ( 'NONE',  #147 ) ;
#181 = EDGE_CURVE ( 'NONE', #202, #202, #53, .T. ) ;
#182 = EDGE_LOOP ( 'NONE', ( #101 ) ) ;
#183 = APPROVAL_ROLE ( '' ) ;
#184 = COORDINATED_UNIVERSAL_TIME_OFFSET ( 1, 0, .AHEAD. ) ;
#185 = CLOSED_SHELL ( 'NONE', ( #154, #144, #34, #20 ) ) ;
#186 = APPROVAL ( #76, 'UNSPECIFIED' ) ;
#187 = CARTESIAN_POINT ( 'NONE',  ( 2.094888803305880013E-14, 1.874699728327288825E-33, 6.000000000000000000 ) ) ;
#188 =( LENGTH_UNIT ( ) NAMED_UNIT ( * ) SI_UNIT ( .MILLI., .METRE. ) );
#189 = PRODUCT_DEFINITION_SHAPE ( 'NONE', 'NONE',  #113 ) ;
#190 = DIRECTION ( 'NONE',  ( -3.491481338843133355E-15, 1.224646799147353207E-16, -1.000000000000000000 ) ) ;
#191 = EDGE_CURVE ( 'NONE', #95, #95, #168, .T. ) ;
#192 = DIRECTION ( 'NONE',  ( 4.275831445896959482E-31, 1.000000000000000000, 1.224646799147353207E-16 ) ) ;
#193 = APPROVAL_ROLE ( '' ) ;
#194 = APPROVAL_PERSON_ORGANIZATION ( #153, #186, #183 ) ;
#195 = CONICAL_SURFACE ( 'NONE', #9, 0.2499999999999963085, 1.047197551196592746 ) ;
#196 = ORIENTED_EDGE ( 'NONE', *, *, #181, .T. ) ;
#197 = FACE_OUTER_BOUND ( 'NONE', #44, .T. ) ;
#198 = FACE_OUTER_BOUND ( 'NONE', #135, .T. ) ;
#199 = AXIS2_PLACEMENT_3D ( 'NONE', #187, #51, #49 ) ;
#200 = DIRECTION ( 'NONE',  ( 3.491481338843133355E-15, -1.224646799147353207E-16, 1.000000000000000000 ) ) ;
#201 = DATE_AND_TIME ( #29, #35 ) ;
#202 = VERTEX_POINT ( 'NONE', #61 ) ;
#203 = CC_DESIGN_DATE_AND_TIME_ASSIGNMENT ( #127, #41, ( #157 ) ) ;
ENDSEC;
END-ISO-10303-21;
