ISO-10303-21;
HEADER;
FILE_DESCRIPTION (( 'STEP AP203' ),
    '1' );
FILE_NAME ('53584.step',
    '2021-10-06T09:22:50',
    ( '' ),
    ( '' ),
    'SwSTEP 2.0',
    'SolidWorks 2019',
    '' );
FILE_SCHEMA (( 'CONFIG_CONTROL_DESIGN' ));
ENDSEC;

DATA;
#1 = PERSON_AND_ORGANIZATION ( #36, #34 ) ;
#2 = AXIS2_PLACEMENT_3D ( 'NONE', #150, #86, #21 ) ;
#3 = ORIENTED_EDGE ( 'NONE', *, *, #156, .F. ) ;
#4 = APPROVAL_STATUS ( 'not_yet_approved' ) ;
#5 = ORIENTED_EDGE ( 'NONE', *, *, #117, .F. ) ;
#6 = SECURITY_CLASSIFICATION_LEVEL ( 'unclassified' ) ;
#7 = SECURITY_CLASSIFICATION ( '', '', #6 ) ;
#8 = ADVANCED_FACE ( 'NONE', ( #122, #94 ), #64, .T. ) ;
#9 = CARTESIAN_POINT ( 'NONE',  ( 1.411065383596155669E-15, 0.6999999999999962919, 0.4041451884327406652 ) ) ;
#10 = DIRECTION ( 'NONE',  ( -3.491481338843133355E-15, 1.224646799147353207E-16, -1.000000000000000000 ) ) ;
#11 = DIRECTION ( 'NONE',  ( 0.0000000000000000000, 0.0000000000000000000, 1.000000000000000000 ) ) ;
#12 = CIRCLE ( 'NONE', #80, 0.6999999999999999556 ) ;
#13 = CC_DESIGN_PERSON_AND_ORGANIZATION_ASSIGNMENT ( #73, #59, ( #22 ) ) ;
#14 = VERTEX_POINT ( 'NONE', #38 ) ;
#15 = PERSON_AND_ORGANIZATION_ROLE ( 'design_owner' ) ;
#16 = ORIENTED_EDGE ( 'NONE', *, *, #191, .F. ) ;
#17 = DATE_AND_TIME ( #61, #47 ) ;
#18 = DIRECTION ( 'NONE',  ( 1.000000000000000000, 0.0000000000000000000, 0.0000000000000000000 ) ) ;
#19 = CIRCLE ( 'NONE', #81, 0.6999999999999962919 ) ;
#20 = CARTESIAN_POINT ( 'NONE',  ( 2.793185071074506684E-14, 0.6999999999999962919, 8.000000000000000000 ) ) ;
#21 = DIRECTION ( 'NONE',  ( 4.275831445896958607E-31, 1.000000000000000000, 1.224646799147353207E-16 ) ) ;
#22 = PRODUCT_DEFINITION ( 'UNKNOWN', '', #145, #77 ) ;
#23 = PLANE ( 'NONE',  #42 ) ;
#24 = DIRECTION ( 'NONE',  ( 4.275831445896958607E-31, 1.000000000000000000, 1.224646799147353207E-16 ) ) ;
#25 = COORDINATED_UNIVERSAL_TIME_OFFSET ( 1, 0, .AHEAD. ) ;
#26 = CC_DESIGN_APPROVAL ( #83, ( #22 ) ) ;
#27 = APPROVAL_DATE_TIME ( #90, #200 ) ;
#28 = CLOSED_SHELL ( 'NONE', ( #180, #65, #8, #149 ) ) ;
#29 = EDGE_LOOP ( 'NONE', ( #58 ) ) ;
#30 = PERSON_AND_ORGANIZATION ( #36, #34 ) ;
#31 = EDGE_LOOP ( 'NONE', ( #189 ) ) ;
#32 = DATE_AND_TIME ( #153, #108 ) ;
#33 = EDGE_CURVE ( 'NONE', #99, #99, #12, .T. ) ;
#34 = ORGANIZATION ( 'UNSPECIFIED', 'UNSPECIFIED', '' ) ;
#35 = ADVANCED_FACE ( 'NONE', ( #49 ), #110, .T. ) ;
#36 = PERSON ( 'UNSPECIFIED', 'UNSPECIFIED', 'UNSPECIFIED', ('UNSPECIFIED'), ('UNSPECIFIED'), ('UNSPECIFIED') ) ;
#37 = CARTESIAN_POINT ( 'NONE',  ( 1.047444401652940007E-13, 0.4999999999999963363, 30.00000000000000000 ) ) ;
#38 = CARTESIAN_POINT ( 'NONE',  ( 2.793185071074506684E-14, 0.6999999999999962919, 8.000000000000000000 ) ) ;
#39 = FACE_OUTER_BOUND ( 'NONE', #185, .T. ) ;
#40 = DIRECTION ( 'NONE',  ( 0.0000000000000000000, 1.000000000000000000, 0.0000000000000000000 ) ) ;
#41 = CARTESIAN_POINT ( 'NONE',  ( 2.793185071074506684E-14, -9.797174393178825657E-16, 8.000000000000000000 ) ) ;
#42 = AXIS2_PLACEMENT_3D ( 'NONE', #89, #118, #184 ) ;
#43 = CYLINDRICAL_SURFACE ( 'NONE', #57, 0.6999999999999986233 ) ;
#44 = APPROVAL_ROLE ( '' ) ;
#45 = CARTESIAN_POINT ( 'NONE',  ( 1.047444401652940007E-13, -3.673940397442059178E-15, 30.00000000000000000 ) ) ;
#46 = EDGE_LOOP ( 'NONE', ( #192 ) ) ;
#47 = LOCAL_TIME ( 11, 22, 50.00000000000000000, #138 ) ;
#48 = COORDINATED_UNIVERSAL_TIME_OFFSET ( 1, 0, .AHEAD. ) ;
#49 = FACE_OUTER_BOUND ( 'NONE', #123, .T. ) ;
#50 = APPROVAL ( #109, 'UNSPECIFIED' ) ;
#51 = DATE_AND_TIME ( #97, #198 ) ;
#52 = AXIS2_PLACEMENT_3D ( 'NONE', #167, #11, #18 ) ;
#53 =( LENGTH_UNIT ( ) NAMED_UNIT ( * ) SI_UNIT ( .MILLI., .METRE. ) );
#54 = APPROVAL_PERSON_ORGANIZATION ( #1, #50, #102 ) ;
#55 = FACE_OUTER_BOUND ( 'NONE', #107, .T. ) ;
#56 = DIRECTION ( 'NONE',  ( 5.502656983963560286E-31, 1.000000000000000000, 1.548860246407871718E-16 ) ) ;
#57 = AXIS2_PLACEMENT_3D ( 'NONE', #103, #172, #183 ) ;
#58 = ORIENTED_EDGE ( 'NONE', *, *, #163, .T. ) ;
#59 = PERSON_AND_ORGANIZATION_ROLE ( 'creator' ) ;
#60 = DIRECTION ( 'NONE',  ( 0.0000000000000000000, 1.000000000000000000, 0.0000000000000000000 ) ) ;
#61 = CALENDAR_DATE ( 2021, 6, 10 ) ;
#62 = CC_DESIGN_PERSON_AND_ORGANIZATION_ASSIGNMENT ( #30, #171, ( #7 ) ) ;
#63 = EDGE_LOOP ( 'NONE', ( #137 ) ) ;
#64 = CONICAL_SURFACE ( 'NONE', #178, 0.5000000000000000000, 0.7853981633974512766 ) ;
#65 = ADVANCED_FACE ( 'NONE', ( #203, #135 ), #43, .T. ) ;
#66 = AXIS2_PLACEMENT_3D ( 'NONE', #69, #197, #24 ) ;
#67 = PLANE ( 'NONE',  #66 ) ;
#68 = VERTEX_POINT ( 'NONE', #9 ) ;
#69 = CARTESIAN_POINT ( 'NONE',  ( 1.047444401652940007E-13, 3.749399456654588597E-33, 30.00000000000000000 ) ) ;
#70 = DIRECTION ( 'NONE',  ( 0.0000000000000000000, 1.000000000000000000, 0.0000000000000000000 ) ) ;
#71 = APPROVAL_DATE_TIME ( #202, #83 ) ;
#72 = DIRECTION ( 'NONE',  ( -4.275831445896958607E-31, -1.000000000000000000, -1.224646799147353207E-16 ) ) ;
#73 = PERSON_AND_ORGANIZATION ( #36, #34 ) ;
#74 = AXIS2_PLACEMENT_3D ( 'NONE', #148, #10, #40 ) ;
#75 = ORIENTED_EDGE ( 'NONE', *, *, #33, .T. ) ;
#76 = PERSON_AND_ORGANIZATION_ROLE ( 'creator' ) ;
#77 = DESIGN_CONTEXT ( 'detailed design', #112, 'design' ) ;
#78 = DIRECTION ( 'NONE',  ( 0.0000000000000000000, 1.000000000000000000, 0.0000000000000000000 ) ) ;
#79 = DATE_TIME_ROLE ( 'creation_date' ) ;
#80 = AXIS2_PLACEMENT_3D ( 'NONE', #174, #155, #78 ) ;
#81 = AXIS2_PLACEMENT_3D ( 'NONE', #169, #164, #56 ) ;
#82 = CC_DESIGN_APPROVAL ( #200, ( #145 ) ) ;
#83 = APPROVAL ( #4, 'UNSPECIFIED' ) ;
#84 = CYLINDRICAL_SURFACE ( 'NONE', #2, 0.6999999999999968470 ) ;
#85 =( GEOMETRIC_REPRESENTATION_CONTEXT ( 3 ) GLOBAL_UNCERTAINTY_ASSIGNED_CONTEXT ( ( #142 ) ) GLOBAL_UNIT_ASSIGNED_CONTEXT ( ( #53, #179, #182 ) ) REPRESENTATION_CONTEXT ( 'NONE', 'WORKASPACE' ) );
#86 = DIRECTION ( 'NONE',  ( -3.491481338843133355E-15, 1.224646799147353207E-16, -1.000000000000000000 ) ) ;
#87 = VERTEX_POINT ( 'NONE', #20 ) ;
#88 = CC_DESIGN_PERSON_AND_ORGANIZATION_ASSIGNMENT ( #140, #15, ( #98 ) ) ;
#89 = CARTESIAN_POINT ( 'NONE',  ( 2.793185071074506684E-14, 5.249159239316466732E-33, 8.000000000000000000 ) ) ;
#90 = DATE_AND_TIME ( #95, #124 ) ;
#91 = ORIENTED_EDGE ( 'NONE', *, *, #191, .T. ) ;
#92 = PERSON_AND_ORGANIZATION ( #36, #34 ) ;
#93 = EDGE_LOOP ( 'NONE', ( #75 ) ) ;
#94 = FACE_BOUND ( 'NONE', #63, .T. ) ;
#95 = CALENDAR_DATE ( 2021, 6, 10 ) ;
#96 = EDGE_LOOP ( 'NONE', ( #91 ) ) ;
#97 = CALENDAR_DATE ( 2021, 6, 10 ) ;
#98 = PRODUCT ( '53584', '53584', '', ( #154 ) ) ;
#99 = VERTEX_POINT ( 'NONE', #196 ) ;
#100 = CC_DESIGN_PERSON_AND_ORGANIZATION_ASSIGNMENT ( #134, #106, ( #145 ) ) ;
#101 = CARTESIAN_POINT ( 'NONE',  ( 1.411065383596155275E-15, -4.949351114049596253E-17, 0.4041451884327405542 ) ) ;
#102 = APPROVAL_ROLE ( '' ) ;
#103 = CARTESIAN_POINT ( 'NONE',  ( 0.0000000000000000000, 0.0000000000000000000, 0.0000000000000000000 ) ) ;
#104 = PERSON_AND_ORGANIZATION ( #36, #34 ) ;
#105 = CARTESIAN_POINT ( 'NONE',  ( 2.793185071074506684E-14, 5.249159239316466732E-33, 8.000000000000000000 ) ) ;
#106 = PERSON_AND_ORGANIZATION_ROLE ( 'design_supplier' ) ;
#107 = EDGE_LOOP ( 'NONE', ( #5 ) ) ;
#108 = LOCAL_TIME ( 11, 22, 50.00000000000000000, #175 ) ;
#109 = APPROVAL_STATUS ( 'not_yet_approved' ) ;
#110 = PLANE ( 'NONE',  #162 ) ;
#111 = APPLICATION_PROTOCOL_DEFINITION ( 'international standard', 'config_control_design', 1994, #119 ) ;
#112 = APPLICATION_CONTEXT ( 'configuration controlled 3d designs of mechanical parts and assemblies' ) ;
#113 = CIRCLE ( 'NONE', #176, 0.6999999999999972911 ) ;
#114 = ADVANCED_FACE ( 'NONE', ( #55, #116 ), #84, .T. ) ;
#115 = ADVANCED_FACE ( 'NONE', ( #201 ), #194, .T. ) ;
#116 = FACE_OUTER_BOUND ( 'NONE', #29, .T. ) ;
#117 = EDGE_CURVE ( 'NONE', #68, #68, #19, .T. ) ;
#118 = DIRECTION ( 'NONE',  ( 3.491481338843133355E-15, -1.224646799147353207E-16, 1.000000000000000000 ) ) ;
#119 = APPLICATION_CONTEXT ( 'configuration controlled 3d designs of mechanical parts and assemblies' ) ;
#120 = APPROVAL_STATUS ( 'not_yet_approved' ) ;
#121 = SHAPE_DEFINITION_REPRESENTATION ( #159, #144 ) ;
#122 = FACE_OUTER_BOUND ( 'NONE', #31, .T. ) ;
#123 = EDGE_LOOP ( 'NONE', ( #152 ) ) ;
#124 = LOCAL_TIME ( 11, 22, 50.00000000000000000, #25 ) ;
#125 = CC_DESIGN_PERSON_AND_ORGANIZATION_ASSIGNMENT ( #193, #76, ( #145 ) ) ;
#126 = CIRCLE ( 'NONE', #74, 0.5000000000000000000 ) ;
#127 = CARTESIAN_POINT ( 'NONE',  ( 2.793185071074506684E-14, -9.797174393178825657E-16, 8.000000000000000000 ) ) ;
#128 = APPROVAL_PERSON_ORGANIZATION ( #104, #200, #44 ) ;
#129 = VERTEX_POINT ( 'NONE', #37 ) ;
#130 = DIRECTION ( 'NONE',  ( -3.491481338843133355E-15, 1.224646799147353207E-16, -1.000000000000000000 ) ) ;
#131 = CALENDAR_DATE ( 2021, 6, 10 ) ;
#132 = MANIFOLD_SOLID_BREP ( 'Corps-Déplacer/Copier1[1]', #28 ) ;
#133 = DIRECTION ( 'NONE',  ( 3.491481338843133355E-15, -1.224646799147353207E-16, 1.000000000000000000 ) ) ;
#134 = PERSON_AND_ORGANIZATION ( #36, #34 ) ;
#135 = FACE_OUTER_BOUND ( 'NONE', #93, .T. ) ;
#136 = LOCAL_TIME ( 11, 22, 50.00000000000000000, #48 ) ;
#137 = ORIENTED_EDGE ( 'NONE', *, *, #156, .T. ) ;
#138 = COORDINATED_UNIVERSAL_TIME_OFFSET ( 1, 0, .AHEAD. ) ;
#139 = EDGE_LOOP ( 'NONE', ( #16 ) ) ;
#140 = PERSON_AND_ORGANIZATION ( #36, #34 ) ;
#141 = PRODUCT_RELATED_PRODUCT_CATEGORY ( 'detail', '', ( #98 ) ) ;
#142 = UNCERTAINTY_MEASURE_WITH_UNIT (LENGTH_MEASURE( 1.000000000000000082E-05 ), #53, 'distance_accuracy_value', 'NONE');
#143 = MANIFOLD_SOLID_BREP ( 'Corps-Déplacer/Copier1[2]', #199 ) ;
#144 = ADVANCED_BREP_SHAPE_REPRESENTATION ( '53584', ( #132, #143, #52 ), #85 ) ;
#145 = PRODUCT_DEFINITION_FORMATION_WITH_SPECIFIED_SOURCE ( 'ANY', '', #98, .NOT_KNOWN. ) ;
#146 = APPROVAL_PERSON_ORGANIZATION ( #92, #83, #187 ) ;
#147 = DIRECTION ( 'NONE',  ( 0.0000000000000000000, 1.000000000000000000, 0.0000000000000000000 ) ) ;
#148 = CARTESIAN_POINT ( 'NONE',  ( 1.047444401652940007E-13, -3.673940397442059178E-15, 30.00000000000000000 ) ) ;
#149 = ADVANCED_FACE ( 'NONE', ( #39 ), #67, .F. ) ;
#150 = CARTESIAN_POINT ( 'NONE',  ( 0.0000000000000000000, 0.0000000000000000000, 0.0000000000000000000 ) ) ;
#151 = DIRECTION ( 'NONE',  ( -3.491481338843133355E-15, 1.224646799147353207E-16, -1.000000000000000000 ) ) ;
#152 = ORIENTED_EDGE ( 'NONE', *, *, #163, .F. ) ;
#153 = CALENDAR_DATE ( 2021, 6, 10 ) ;
#154 = MECHANICAL_CONTEXT ( 'NONE', #119, 'mechanical' ) ;
#155 = DIRECTION ( 'NONE',  ( -3.491481338843133355E-15, 1.224646799147353207E-16, -1.000000000000000000 ) ) ;
#156 = EDGE_CURVE ( 'NONE', #129, #129, #126, .T. ) ;
#157 = COORDINATED_UNIVERSAL_TIME_OFFSET ( 1, 0, .AHEAD. ) ;
#158 = APPROVAL_DATE_TIME ( #51, #50 ) ;
#159 = PRODUCT_DEFINITION_SHAPE ( 'NONE', 'NONE',  #22 ) ;
#160 = CIRCLE ( 'NONE', #186, 0.6999999999999972911 ) ;
#161 = CC_DESIGN_APPROVAL ( #50, ( #7 ) ) ;
#162 = AXIS2_PLACEMENT_3D ( 'NONE', #105, #133, #72 ) ;
#163 = EDGE_CURVE ( 'NONE', #14, #14, #160, .T. ) ;
#164 = DIRECTION ( 'NONE',  ( -3.491481338843133355E-15, 1.224646799147353207E-16, -1.000000000000000000 ) ) ;
#165 = AXIS2_PLACEMENT_3D ( 'NONE', #101, #181, #168 ) ;
#166 = FACE_OUTER_BOUND ( 'NONE', #96, .T. ) ;
#167 = CARTESIAN_POINT ( 'NONE',  ( 0.0000000000000000000, 0.0000000000000000000, 0.0000000000000000000 ) ) ;
#168 = DIRECTION ( 'NONE',  ( -5.502656983963560286E-31, -1.000000000000000000, -1.548860246407871718E-16 ) ) ;
#169 = CARTESIAN_POINT ( 'NONE',  ( 1.411065383596155275E-15, -4.949351114049596253E-17, 0.4041451884327405542 ) ) ;
#170 = DIRECTION ( 'NONE',  ( -3.491481338843133355E-15, 1.224646799147353207E-16, -1.000000000000000000 ) ) ;
#171 = PERSON_AND_ORGANIZATION_ROLE ( 'classification_officer' ) ;
#172 = DIRECTION ( 'NONE',  ( -3.491481338843133355E-15, 1.224646799147353207E-16, -1.000000000000000000 ) ) ;
#173 = CC_DESIGN_SECURITY_CLASSIFICATION ( #7, ( #145 ) ) ;
#174 = CARTESIAN_POINT ( 'NONE',  ( 1.040461438975253740E-13, -3.649447461459112464E-15, 29.80000000000000071 ) ) ;
#175 = COORDINATED_UNIVERSAL_TIME_OFFSET ( 1, 0, .AHEAD. ) ;
#176 = AXIS2_PLACEMENT_3D ( 'NONE', #127, #151, #70 ) ;
#177 = CC_DESIGN_DATE_AND_TIME_ASSIGNMENT ( #32, #79, ( #22 ) ) ;
#178 = AXIS2_PLACEMENT_3D ( 'NONE', #45, #170, #60 ) ;
#179 =( NAMED_UNIT ( * ) PLANE_ANGLE_UNIT ( ) SI_UNIT ( $, .RADIAN. ) );
#180 = ADVANCED_FACE ( 'NONE', ( #166 ), #23, .F. ) ;
#181 = DIRECTION ( 'NONE',  ( 3.491481338843133355E-15, -1.224646799147353207E-16, 1.000000000000000000 ) ) ;
#182 =( NAMED_UNIT ( * ) SI_UNIT ( $, .STERADIAN. ) SOLID_ANGLE_UNIT ( ) );
#183 = DIRECTION ( 'NONE',  ( 4.275831445896957731E-31, 1.000000000000000000, 1.224646799147353207E-16 ) ) ;
#184 = DIRECTION ( 'NONE',  ( -4.275831445896958607E-31, -1.000000000000000000, -1.224646799147353207E-16 ) ) ;
#185 = EDGE_LOOP ( 'NONE', ( #3 ) ) ;
#186 = AXIS2_PLACEMENT_3D ( 'NONE', #41, #130, #147 ) ;
#187 = APPROVAL_ROLE ( '' ) ;
#188 = APPLICATION_PROTOCOL_DEFINITION ( 'international standard', 'config_control_design', 1994, #112 ) ;
#189 = ORIENTED_EDGE ( 'NONE', *, *, #33, .F. ) ;
#190 = DATE_TIME_ROLE ( 'classification_date' ) ;
#191 = EDGE_CURVE ( 'NONE', #87, #87, #113, .T. ) ;
#192 = ORIENTED_EDGE ( 'NONE', *, *, #117, .T. ) ;
#193 = PERSON_AND_ORGANIZATION ( #36, #34 ) ;
#194 = CONICAL_SURFACE ( 'NONE', #165, 0.6999999999999962919, 1.047197551196592746 ) ;
#195 = CC_DESIGN_DATE_AND_TIME_ASSIGNMENT ( #17, #190, ( #7 ) ) ;
#196 = CARTESIAN_POINT ( 'NONE',  ( 1.040461438975253740E-13, 0.6999999999999962919, 29.80000000000000071 ) ) ;
#197 = DIRECTION ( 'NONE',  ( -3.491481338843133355E-15, 1.224646799147353207E-16, -1.000000000000000000 ) ) ;
#198 = LOCAL_TIME ( 11, 22, 50.00000000000000000, #157 ) ;
#199 = CLOSED_SHELL ( 'NONE', ( #115, #114, #35 ) ) ;
#200 = APPROVAL ( #120, 'UNSPECIFIED' ) ;
#201 = FACE_OUTER_BOUND ( 'NONE', #46, .T. ) ;
#202 = DATE_AND_TIME ( #131, #136 ) ;
#203 = FACE_OUTER_BOUND ( 'NONE', #139, .T. ) ;
ENDSEC;
END-ISO-10303-21;
