ISO-10303-21;
HEADER;
FILE_DESCRIPTION (( 'STEP AP203' ),
    '1' );
FILE_NAME ('53583.step',
    '2021-10-06T09:22:49',
    ( '' ),
    ( '' ),
    'SwSTEP 2.0',
    'SolidWorks 2019',
    '' );
FILE_SCHEMA (( 'CONFIG_CONTROL_DESIGN' ));
ENDSEC;

DATA;
#1 = APPLICATION_PROTOCOL_DEFINITION ( 'international standard', 'config_control_design', 1994, #195 ) ;
#2 = ADVANCED_BREP_SHAPE_REPRESENTATION ( '53583', ( #5, #95, #30 ), #77 ) ;
#3 = FACE_OUTER_BOUND ( 'NONE', #103, .T. ) ;
#4 = COORDINATED_UNIVERSAL_TIME_OFFSET ( 1, 0, .AHEAD. ) ;
#5 = MANIFOLD_SOLID_BREP ( 'Corps-Déplacer/Copier1[1]', #108 ) ;
#6 = CARTESIAN_POINT ( 'NONE',  ( 2.444036937190193349E-14, -8.572527594031473190E-16, 7.000000000000000000 ) ) ;
#7 = FACE_OUTER_BOUND ( 'NONE', #202, .T. ) ;
#8 = AXIS2_PLACEMENT_3D ( 'NONE', #162, #98, #135 ) ;
#9 = CARTESIAN_POINT ( 'NONE',  ( 0.0000000000000000000, 0.0000000000000000000, 0.0000000000000000000 ) ) ;
#10 = CARTESIAN_POINT ( 'NONE',  ( 2.444036937190193349E-14, 0.4999999999999963363, 7.000000000000000000 ) ) ;
#11 = VERTEX_POINT ( 'NONE', #10 ) ;
#12 = VERTEX_POINT ( 'NONE', #142 ) ;
#13 = AXIS2_PLACEMENT_3D ( 'NONE', #102, #189, #52 ) ;
#14 = CC_DESIGN_PERSON_AND_ORGANIZATION_ASSIGNMENT ( #190, #62, ( #201 ) ) ;
#15 = PERSON_AND_ORGANIZATION_ROLE ( 'classification_officer' ) ;
#16 = PERSON_AND_ORGANIZATION ( #124, #101 ) ;
#17 = APPLICATION_CONTEXT ( 'configuration controlled 3d designs of mechanical parts and assemblies' ) ;
#18 = FACE_OUTER_BOUND ( 'NONE', #87, .T. ) ;
#19 = DATE_AND_TIME ( #75, #126 ) ;
#20 = ADVANCED_FACE ( 'NONE', ( #155 ), #32, .F. ) ;
#21 = MECHANICAL_CONTEXT ( 'NONE', #17, 'mechanical' ) ;
#22 = DIRECTION ( 'NONE',  ( 1.000000000000000000, 0.0000000000000000000, 0.0000000000000000000 ) ) ;
#23 = DIRECTION ( 'NONE',  ( 0.0000000000000000000, 1.000000000000000000, 0.0000000000000000000 ) ) ;
#24 = DIRECTION ( 'NONE',  ( -3.491481338843133355E-15, 1.224646799147353207E-16, -1.000000000000000000 ) ) ;
#25 = CALENDAR_DATE ( 2021, 6, 10 ) ;
#26 = VERTEX_POINT ( 'NONE', #151 ) ;
#27 = APPROVAL_PERSON_ORGANIZATION ( #91, #86, #145 ) ;
#28 = DIRECTION ( 'NONE',  ( 0.0000000000000000000, 1.000000000000000000, 0.0000000000000000000 ) ) ;
#29 = CARTESIAN_POINT ( 'NONE',  ( 1.040461438975253740E-13, 0.4999999999999963363, 29.80000000000000071 ) ) ;
#30 = AXIS2_PLACEMENT_3D ( 'NONE', #9, #67, #22 ) ;
#31 = ADVANCED_FACE ( 'NONE', ( #114, #18 ), #118, .T. ) ;
#32 = PLANE ( 'NONE',  #13 ) ;
#33 = APPROVAL ( #45, 'UNSPECIFIED' ) ;
#34 = ORIENTED_EDGE ( 'NONE', *, *, #143, .F. ) ;
#35 = CC_DESIGN_SECURITY_CLASSIFICATION ( #167, ( #139 ) ) ;
#36 = APPROVAL_DATE_TIME ( #19, #86 ) ;
#37 = COORDINATED_UNIVERSAL_TIME_OFFSET ( 1, 0, .AHEAD. ) ;
#38 = COORDINATED_UNIVERSAL_TIME_OFFSET ( 1, 0, .AHEAD. ) ;
#39 = DIRECTION ( 'NONE',  ( 0.0000000000000000000, 1.000000000000000000, 0.0000000000000000000 ) ) ;
#40 = CLOSED_SHELL ( 'NONE', ( #175, #63, #81 ) ) ;
#41 = DIRECTION ( 'NONE',  ( 3.851859888774499732E-31, 1.000000000000000000, 1.084202172485512323E-16 ) ) ;
#42 = PERSON_AND_ORGANIZATION ( #124, #101 ) ;
#43 = CARTESIAN_POINT ( 'NONE',  ( 2.444036937190193349E-14, 3.749399456654610492E-33, 7.000000000000000000 ) ) ;
#44 = PLANE ( 'NONE',  #203 ) ;
#45 = APPROVAL_STATUS ( 'not_yet_approved' ) ;
#46 = CIRCLE ( 'NONE', #133, 0.5000000000000000000 ) ;
#47 = SHAPE_DEFINITION_REPRESENTATION ( #193, #2 ) ;
#48 = DIRECTION ( 'NONE',  ( -3.491481338843133355E-15, 1.224646799147353207E-16, -1.000000000000000000 ) ) ;
#49 = CIRCLE ( 'NONE', #178, 0.3000000000000000444 ) ;
#50 = DIRECTION ( 'NONE',  ( -3.851859888774499732E-31, -1.000000000000000000, -1.084202172485512323E-16 ) ) ;
#51 = ORIENTED_EDGE ( 'NONE', *, *, #158, .T. ) ;
#52 = DIRECTION ( 'NONE',  ( 4.275831445896958607E-31, 1.000000000000000000, 1.224646799147353207E-16 ) ) ;
#53 = EDGE_CURVE ( 'NONE', #168, #168, #46, .T. ) ;
#54 = ORIENTED_EDGE ( 'NONE', *, *, #110, .F. ) ;
#55 = PERSON_AND_ORGANIZATION_ROLE ( 'design_owner' ) ;
#56 = CC_DESIGN_PERSON_AND_ORGANIZATION_ASSIGNMENT ( #130, #177, ( #139 ) ) ;
#57 = CONICAL_SURFACE ( 'NONE', #88, 0.4999999999999963363, 1.047197551196592746 ) ;
#58 = CC_DESIGN_APPROVAL ( #163, ( #201 ) ) ;
#59 = APPROVAL_DATE_TIME ( #191, #163 ) ;
#60 = COORDINATED_UNIVERSAL_TIME_OFFSET ( 1, 0, .AHEAD. ) ;
#61 = CC_DESIGN_APPROVAL ( #33, ( #167 ) ) ;
#62 = PERSON_AND_ORGANIZATION_ROLE ( 'creator' ) ;
#63 = ADVANCED_FACE ( 'NONE', ( #3, #120 ), #122, .T. ) ;
#64 = DIRECTION ( 'NONE',  ( -3.491481338843133355E-15, 1.224646799147353207E-16, -1.000000000000000000 ) ) ;
#65 = DIRECTION ( 'NONE',  ( -4.275831445896958607E-31, -1.000000000000000000, -1.224646799147353207E-16 ) ) ;
#66 = VERTEX_POINT ( 'NONE', #125 ) ;
#67 = DIRECTION ( 'NONE',  ( 0.0000000000000000000, 0.0000000000000000000, 1.000000000000000000 ) ) ;
#68 = CIRCLE ( 'NONE', #153, 0.4999999999999971689 ) ;
#69 = DIRECTION ( 'NONE',  ( -3.491481338843133355E-15, 1.224646799147353207E-16, -1.000000000000000000 ) ) ;
#70 =( LENGTH_UNIT ( ) NAMED_UNIT ( * ) SI_UNIT ( .MILLI., .METRE. ) );
#71 = APPROVAL_DATE_TIME ( #184, #33 ) ;
#72 = ORIENTED_EDGE ( 'NONE', *, *, #158, .F. ) ;
#73 = AXIS2_PLACEMENT_3D ( 'NONE', #43, #140, #65 ) ;
#74 = ORIENTED_EDGE ( 'NONE', *, *, #180, .T. ) ;
#75 = CALENDAR_DATE ( 2021, 6, 10 ) ;
#76 = ORIENTED_EDGE ( 'NONE', *, *, #110, .T. ) ;
#77 =( GEOMETRIC_REPRESENTATION_CONTEXT ( 3 ) GLOBAL_UNCERTAINTY_ASSIGNED_CONTEXT ( ( #192 ) ) GLOBAL_UNIT_ASSIGNED_CONTEXT ( ( #70, #85, #185 ) ) REPRESENTATION_CONTEXT ( 'NONE', 'WORKASPACE' ) );
#78 = DIRECTION ( 'NONE',  ( 3.491481338843133355E-15, -1.224646799147353207E-16, 1.000000000000000000 ) ) ;
#79 = PERSON_AND_ORGANIZATION ( #124, #101 ) ;
#80 = PRODUCT_RELATED_PRODUCT_CATEGORY ( 'detail', '', ( #165 ) ) ;
#81 = ADVANCED_FACE ( 'NONE', ( #138 ), #44, .T. ) ;
#82 = CARTESIAN_POINT ( 'NONE',  ( 2.444036937190193349E-14, 3.749399456654610492E-33, 7.000000000000000000 ) ) ;
#83 = LOCAL_TIME ( 11, 22, 49.00000000000000000, #4 ) ;
#84 = CARTESIAN_POINT ( 'NONE',  ( 1.007903845425823140E-15, -3.535250795749704302E-17, 0.2886751345948140868 ) ) ;
#85 =( NAMED_UNIT ( * ) PLANE_ANGLE_UNIT ( ) SI_UNIT ( $, .RADIAN. ) );
#86 = APPROVAL ( #117, 'UNSPECIFIED' ) ;
#87 = EDGE_LOOP ( 'NONE', ( #198 ) ) ;
#88 = AXIS2_PLACEMENT_3D ( 'NONE', #84, #166, #50 ) ;
#89 = PERSON_AND_ORGANIZATION_ROLE ( 'creator' ) ;
#90 = CALENDAR_DATE ( 2021, 6, 10 ) ;
#91 = PERSON_AND_ORGANIZATION ( #124, #101 ) ;
#92 = DIRECTION ( 'NONE',  ( 4.275831445896957731E-31, 1.000000000000000000, 1.224646799147353207E-16 ) ) ;
#93 = AXIS2_PLACEMENT_3D ( 'NONE', #182, #179, #92 ) ;
#94 = PERSON_AND_ORGANIZATION ( #124, #101 ) ;
#95 = MANIFOLD_SOLID_BREP ( 'Corps-Déplacer/Copier1[2]', #40 ) ;
#96 = CARTESIAN_POINT ( 'NONE',  ( 1.007903845425823140E-15, -3.535250795749704302E-17, 0.2886751345948140868 ) ) ;
#97 = AXIS2_PLACEMENT_3D ( 'NONE', #164, #127, #186 ) ;
#98 = DIRECTION ( 'NONE',  ( -3.491481338843133355E-15, 1.224646799147353207E-16, -1.000000000000000000 ) ) ;
#99 = FACE_OUTER_BOUND ( 'NONE', #172, .T. ) ;
#100 = CARTESIAN_POINT ( 'NONE',  ( 2.444036937190193349E-14, -8.572527594031473190E-16, 7.000000000000000000 ) ) ;
#101 = ORGANIZATION ( 'UNSPECIFIED', 'UNSPECIFIED', '' ) ;
#102 = CARTESIAN_POINT ( 'NONE',  ( 1.047444401652940007E-13, 2.249639673992731331E-33, 30.00000000000000000 ) ) ;
#103 = EDGE_LOOP ( 'NONE', ( #54 ) ) ;
#104 = ORIENTED_EDGE ( 'NONE', *, *, #143, .T. ) ;
#105 = DATE_AND_TIME ( #90, #159 ) ;
#106 = ORIENTED_EDGE ( 'NONE', *, *, #53, .F. ) ;
#107 = CALENDAR_DATE ( 2021, 6, 10 ) ;
#108 = CLOSED_SHELL ( 'NONE', ( #146, #31, #194, #20 ) ) ;
#109 = PLANE ( 'NONE',  #73 ) ;
#110 = EDGE_CURVE ( 'NONE', #26, #26, #137, .T. ) ;
#111 = APPLICATION_PROTOCOL_DEFINITION ( 'international standard', 'config_control_design', 1994, #17 ) ;
#112 = FACE_BOUND ( 'NONE', #115, .T. ) ;
#113 = LOCAL_TIME ( 11, 22, 49.00000000000000000, #60 ) ;
#114 = FACE_OUTER_BOUND ( 'NONE', #171, .T. ) ;
#115 = EDGE_LOOP ( 'NONE', ( #51 ) ) ;
#116 = EDGE_LOOP ( 'NONE', ( #74 ) ) ;
#117 = APPROVAL_STATUS ( 'not_yet_approved' ) ;
#118 = CYLINDRICAL_SURFACE ( 'NONE', #8, 0.4999999999999986122 ) ;
#119 = DATE_TIME_ROLE ( 'creation_date' ) ;
#120 = FACE_OUTER_BOUND ( 'NONE', #129, .T. ) ;
#121 = DESIGN_CONTEXT ( 'detailed design', #195, 'design' ) ;
#122 = CYLINDRICAL_SURFACE ( 'NONE', #93, 0.4999999999999967804 ) ;
#123 = AXIS2_PLACEMENT_3D ( 'NONE', #96, #176, #41 ) ;
#124 = PERSON ( 'UNSPECIFIED', 'UNSPECIFIED', 'UNSPECIFIED', ('UNSPECIFIED'), ('UNSPECIFIED'), ('UNSPECIFIED') ) ;
#125 = CARTESIAN_POINT ( 'NONE',  ( 2.444036937190193349E-14, 0.4999999999999963363, 7.000000000000000000 ) ) ;
#126 = LOCAL_TIME ( 11, 22, 49.00000000000000000, #38 ) ;
#127 = DIRECTION ( 'NONE',  ( -3.491481338843133355E-15, 1.224646799147353207E-16, -1.000000000000000000 ) ) ;
#128 = EDGE_LOOP ( 'NONE', ( #34 ) ) ;
#129 = EDGE_LOOP ( 'NONE', ( #104 ) ) ;
#130 = PERSON_AND_ORGANIZATION ( #124, #101 ) ;
#131 = CC_DESIGN_PERSON_AND_ORGANIZATION_ASSIGNMENT ( #16, #55, ( #165 ) ) ;
#132 = ORIENTED_EDGE ( 'NONE', *, *, #180, .F. ) ;
#133 = AXIS2_PLACEMENT_3D ( 'NONE', #147, #64, #23 ) ;
#134 = APPROVAL_ROLE ( '' ) ;
#135 = DIRECTION ( 'NONE',  ( 4.275831445896959482E-31, 1.000000000000000000, 1.224646799147353207E-16 ) ) ;
#136 = CALENDAR_DATE ( 2021, 6, 10 ) ;
#137 = CIRCLE ( 'NONE', #123, 0.4999999999999963363 ) ;
#138 = FACE_OUTER_BOUND ( 'NONE', #128, .T. ) ;
#139 = PRODUCT_DEFINITION_FORMATION_WITH_SPECIFIED_SOURCE ( 'ANY', '', #165, .NOT_KNOWN. ) ;
#140 = DIRECTION ( 'NONE',  ( 3.491481338843133355E-15, -1.224646799147353207E-16, 1.000000000000000000 ) ) ;
#141 = CC_DESIGN_APPROVAL ( #86, ( #139 ) ) ;
#142 = CARTESIAN_POINT ( 'NONE',  ( 1.047444401652940007E-13, 0.2999999999999963252, 30.00000000000000000 ) ) ;
#143 = EDGE_CURVE ( 'NONE', #11, #11, #150, .T. ) ;
#144 = APPROVAL_PERSON_ORGANIZATION ( #42, #163, #134 ) ;
#145 = APPROVAL_ROLE ( '' ) ;
#146 = ADVANCED_FACE ( 'NONE', ( #160 ), #109, .F. ) ;
#147 = CARTESIAN_POINT ( 'NONE',  ( 1.040461438975253740E-13, -3.649447461459112464E-15, 29.80000000000000071 ) ) ;
#148 = CC_DESIGN_DATE_AND_TIME_ASSIGNMENT ( #157, #119, ( #201 ) ) ;
#149 = CC_DESIGN_PERSON_AND_ORGANIZATION_ASSIGNMENT ( #199, #15, ( #167 ) ) ;
#150 = CIRCLE ( 'NONE', #170, 0.4999999999999971689 ) ;
#151 = CARTESIAN_POINT ( 'NONE',  ( 1.007903845425823337E-15, 0.4999999999999963363, 0.2886751345948141423 ) ) ;
#152 = APPROVAL_PERSON_ORGANIZATION ( #79, #33, #197 ) ;
#153 = AXIS2_PLACEMENT_3D ( 'NONE', #100, #69, #28 ) ;
#154 = APPROVAL_STATUS ( 'not_yet_approved' ) ;
#155 = FACE_OUTER_BOUND ( 'NONE', #200, .T. ) ;
#156 = DATE_TIME_ROLE ( 'classification_date' ) ;
#157 = DATE_AND_TIME ( #107, #188 ) ;
#158 = EDGE_CURVE ( 'NONE', #12, #12, #49, .T. ) ;
#159 = LOCAL_TIME ( 11, 22, 49.00000000000000000, #37 ) ;
#160 = FACE_OUTER_BOUND ( 'NONE', #116, .T. ) ;
#161 = SECURITY_CLASSIFICATION_LEVEL ( 'unclassified' ) ;
#162 = CARTESIAN_POINT ( 'NONE',  ( 0.0000000000000000000, 0.0000000000000000000, 0.0000000000000000000 ) ) ;
#163 = APPROVAL ( #154, 'UNSPECIFIED' ) ;
#164 = CARTESIAN_POINT ( 'NONE',  ( 1.047444401652940007E-13, -3.673940397442059178E-15, 30.00000000000000000 ) ) ;
#165 = PRODUCT ( '53583', '53583', '', ( #21 ) ) ;
#166 = DIRECTION ( 'NONE',  ( 3.491481338843133355E-15, -1.224646799147353207E-16, 1.000000000000000000 ) ) ;
#167 = SECURITY_CLASSIFICATION ( '', '', #161 ) ;
#168 = VERTEX_POINT ( 'NONE', #29 ) ;
#169 = CC_DESIGN_PERSON_AND_ORGANIZATION_ASSIGNMENT ( #94, #89, ( #139 ) ) ;
#170 = AXIS2_PLACEMENT_3D ( 'NONE', #6, #24, #39 ) ;
#171 = EDGE_LOOP ( 'NONE', ( #132 ) ) ;
#172 = EDGE_LOOP ( 'NONE', ( #76 ) ) ;
#173 = CONICAL_SURFACE ( 'NONE', #97, 0.3000000000000000444, 0.7853981633974512766 ) ;
#174 = COORDINATED_UNIVERSAL_TIME_OFFSET ( 1, 0, .AHEAD. ) ;
#175 = ADVANCED_FACE ( 'NONE', ( #99 ), #57, .T. ) ;
#176 = DIRECTION ( 'NONE',  ( -3.491481338843133355E-15, 1.224646799147353207E-16, -1.000000000000000000 ) ) ;
#177 = PERSON_AND_ORGANIZATION_ROLE ( 'design_supplier' ) ;
#178 = AXIS2_PLACEMENT_3D ( 'NONE', #183, #48, #196 ) ;
#179 = DIRECTION ( 'NONE',  ( -3.491481338843133355E-15, 1.224646799147353207E-16, -1.000000000000000000 ) ) ;
#180 = EDGE_CURVE ( 'NONE', #66, #66, #68, .T. ) ;
#181 = DIRECTION ( 'NONE',  ( -4.275831445896958607E-31, -1.000000000000000000, -1.224646799147353207E-16 ) ) ;
#182 = CARTESIAN_POINT ( 'NONE',  ( 0.0000000000000000000, 0.0000000000000000000, 0.0000000000000000000 ) ) ;
#183 = CARTESIAN_POINT ( 'NONE',  ( 1.047444401652940007E-13, -3.673940397442059178E-15, 30.00000000000000000 ) ) ;
#184 = DATE_AND_TIME ( #25, #83 ) ;
#185 =( NAMED_UNIT ( * ) SI_UNIT ( $, .STERADIAN. ) SOLID_ANGLE_UNIT ( ) );
#186 = DIRECTION ( 'NONE',  ( 0.0000000000000000000, 1.000000000000000000, 0.0000000000000000000 ) ) ;
#187 = CC_DESIGN_DATE_AND_TIME_ASSIGNMENT ( #105, #156, ( #167 ) ) ;
#188 = LOCAL_TIME ( 11, 22, 49.00000000000000000, #174 ) ;
#189 = DIRECTION ( 'NONE',  ( -3.491481338843133355E-15, 1.224646799147353207E-16, -1.000000000000000000 ) ) ;
#190 = PERSON_AND_ORGANIZATION ( #124, #101 ) ;
#191 = DATE_AND_TIME ( #136, #113 ) ;
#192 = UNCERTAINTY_MEASURE_WITH_UNIT (LENGTH_MEASURE( 1.000000000000000082E-05 ), #70, 'distance_accuracy_value', 'NONE');
#193 = PRODUCT_DEFINITION_SHAPE ( 'NONE', 'NONE',  #201 ) ;
#194 = ADVANCED_FACE ( 'NONE', ( #7, #112 ), #173, .T. ) ;
#195 = APPLICATION_CONTEXT ( 'configuration controlled 3d designs of mechanical parts and assemblies' ) ;
#196 = DIRECTION ( 'NONE',  ( 0.0000000000000000000, 1.000000000000000000, 0.0000000000000000000 ) ) ;
#197 = APPROVAL_ROLE ( '' ) ;
#198 = ORIENTED_EDGE ( 'NONE', *, *, #53, .T. ) ;
#199 = PERSON_AND_ORGANIZATION ( #124, #101 ) ;
#200 = EDGE_LOOP ( 'NONE', ( #72 ) ) ;
#201 = PRODUCT_DEFINITION ( 'UNKNOWN', '', #139, #121 ) ;
#202 = EDGE_LOOP ( 'NONE', ( #106 ) ) ;
#203 = AXIS2_PLACEMENT_3D ( 'NONE', #82, #78, #181 ) ;
ENDSEC;
END-ISO-10303-21;
