ISO-10303-21;
HEADER;
FILE_DESCRIPTION (( 'STEP AP203' ),
    '1' );
FILE_NAME ('53582.step',
    '2021-10-06T09:22:49',
    ( '' ),
    ( '' ),
    'SwSTEP 2.0',
    'SolidWorks 2019',
    '' );
FILE_SCHEMA (( 'CONFIG_CONTROL_DESIGN' ));
ENDSEC;

DATA;
#1 = PERSON_AND_ORGANIZATION ( #173, #35 ) ;
#2 = PERSON_AND_ORGANIZATION_ROLE ( 'creator' ) ;
#3 = CC_DESIGN_DATE_AND_TIME_ASSIGNMENT ( #203, #69, ( #55 ) ) ;
#4 = CYLINDRICAL_SURFACE ( 'NONE', #158, 0.2999999999999966582 ) ;
#5 = PERSON_AND_ORGANIZATION_ROLE ( 'design_supplier' ) ;
#6 = MANIFOLD_SOLID_BREP ( 'Corps-Déplacer/Copier1[2]', #45 ) ;
#7 = EDGE_LOOP ( 'NONE', ( #166 ) ) ;
#8 = FACE_OUTER_BOUND ( 'NONE', #107, .T. ) ;
#9 = ADVANCED_FACE ( 'NONE', ( #99, #182 ), #4, .T. ) ;
#10 = DIRECTION ( 'NONE',  ( 3.491481338843133355E-15, -1.224646799147353207E-16, 1.000000000000000000 ) ) ;
#11 = APPROVAL ( #129, 'UNSPECIFIED' ) ;
#12 = CIRCLE ( 'NONE', #41, 0.2999999999999962697 ) ;
#13 = CARTESIAN_POINT ( 'NONE',  ( 1.047444401652940007E-13, -3.673940397442059178E-15, 30.00000000000000000 ) ) ;
#14 = DIRECTION ( 'NONE',  ( -3.491481338843133355E-15, 1.224646799147353207E-16, -1.000000000000000000 ) ) ;
#15 = CYLINDRICAL_SURFACE ( 'NONE', #37, 0.2999999999999984901 ) ;
#16 = CARTESIAN_POINT ( 'NONE',  ( 6.047423072554911031E-16, 0.2999999999999962697, 0.1732050807568876472 ) ) ;
#17 = CIRCLE ( 'NONE', #138, 0.3000000000000000444 ) ;
#18 = APPLICATION_PROTOCOL_DEFINITION ( 'international standard', 'config_control_design', 1994, #49 ) ;
#19 = PERSON_AND_ORGANIZATION_ROLE ( 'design_owner' ) ;
#20 = EDGE_CURVE ( 'NONE', #66, #66, #162, .T. ) ;
#21 = SECURITY_CLASSIFICATION_LEVEL ( 'unclassified' ) ;
#22 = DATE_AND_TIME ( #150, #199 ) ;
#23 = FACE_OUTER_BOUND ( 'NONE', #88, .T. ) ;
#24 = CLOSED_SHELL ( 'NONE', ( #65, #151, #47, #163 ) ) ;
#25 = APPROVAL_STATUS ( 'not_yet_approved' ) ;
#26 = ORIENTED_EDGE ( 'NONE', *, *, #82, .F. ) ;
#27 = EDGE_CURVE ( 'NONE', #67, #67, #190, .T. ) ;
#28 = ADVANCED_FACE ( 'NONE', ( #8 ), #119, .T. ) ;
#29 = EDGE_LOOP ( 'NONE', ( #26 ) ) ;
#30 = AXIS2_PLACEMENT_3D ( 'NONE', #46, #109, #33 ) ;
#31 = APPROVAL_ROLE ( '' ) ;
#32 = DIRECTION ( 'NONE',  ( 0.0000000000000000000, 1.000000000000000000, 0.0000000000000000000 ) ) ;
#33 = DIRECTION ( 'NONE',  ( 4.275831445896958607E-31, 1.000000000000000000, 1.224646799147353207E-16 ) ) ;
#34 = DIRECTION ( 'NONE',  ( 1.000000000000000000, 0.0000000000000000000, 0.0000000000000000000 ) ) ;
#35 = ORGANIZATION ( 'UNSPECIFIED', 'UNSPECIFIED', '' ) ;
#36 = CARTESIAN_POINT ( 'NONE',  ( 1.043952920314096810E-13, 0.2999999999999963252, 29.89999999999999858 ) ) ;
#37 = AXIS2_PLACEMENT_3D ( 'NONE', #96, #197, #170 ) ;
#38 = DATE_AND_TIME ( #51, #202 ) ;
#39 = DIRECTION ( 'NONE',  ( 0.0000000000000000000, 1.000000000000000000, 0.0000000000000000000 ) ) ;
#40 = CARTESIAN_POINT ( 'NONE',  ( 0.0000000000000000000, 0.0000000000000000000, 0.0000000000000000000 ) ) ;
#41 = AXIS2_PLACEMENT_3D ( 'NONE', #111, #14, #61 ) ;
#42 = DIRECTION ( 'NONE',  ( -3.491481338843133355E-15, 1.224646799147353207E-16, -1.000000000000000000 ) ) ;
#43 = EDGE_LOOP ( 'NONE', ( #100 ) ) ;
#44 = FACE_OUTER_BOUND ( 'NONE', #131, .T. ) ;
#45 = CLOSED_SHELL ( 'NONE', ( #28, #9, #77 ) ) ;
#46 = CARTESIAN_POINT ( 'NONE',  ( 1.047444401652940007E-13, 1.499759782661802699E-33, 30.00000000000000000 ) ) ;
#47 = ADVANCED_FACE ( 'NONE', ( #136, #180 ), #98, .T. ) ;
#48 =( NAMED_UNIT ( * ) SI_UNIT ( $, .STERADIAN. ) SOLID_ANGLE_UNIT ( ) );
#49 = APPLICATION_CONTEXT ( 'configuration controlled 3d designs of mechanical parts and assemblies' ) ;
#50 = CIRCLE ( 'NONE', #90, 0.2999999999999970468 ) ;
#51 = CALENDAR_DATE ( 2021, 6, 10 ) ;
#52 = APPROVAL_DATE_TIME ( #70, #187 ) ;
#53 = LOCAL_TIME ( 11, 22, 49.00000000000000000, #83 ) ;
#54 = DIRECTION ( 'NONE',  ( 0.0000000000000000000, 1.000000000000000000, 0.0000000000000000000 ) ) ;
#55 = SECURITY_CLASSIFICATION ( '', '', #21 ) ;
#56 = ADVANCED_BREP_SHAPE_REPRESENTATION ( '53582', ( #81, #6, #154 ), #148 ) ;
#57 = PRODUCT ( '53582', '53582', '', ( #175 ) ) ;
#58 = APPROVAL_PERSON_ORGANIZATION ( #145, #187, #72 ) ;
#59 = ORIENTED_EDGE ( 'NONE', *, *, #195, .T. ) ;
#60 = ORIENTED_EDGE ( 'NONE', *, *, #27, .F. ) ;
#61 = DIRECTION ( 'NONE',  ( 3.209883240645433084E-31, 1.000000000000000000, 9.035018104045982860E-17 ) ) ;
#62 = APPROVAL_PERSON_ORGANIZATION ( #128, #134, #31 ) ;
#63 = PLANE ( 'NONE',  #30 ) ;
#64 = DIRECTION ( 'NONE',  ( 0.0000000000000000000, 1.000000000000000000, 0.0000000000000000000 ) ) ;
#65 = ADVANCED_FACE ( 'NONE', ( #23 ), #105, .F. ) ;
#66 = VERTEX_POINT ( 'NONE', #186 ) ;
#67 = VERTEX_POINT ( 'NONE', #171 ) ;
#68 = CC_DESIGN_APPROVAL ( #134, ( #155 ) ) ;
#69 = DATE_TIME_ROLE ( 'classification_date' ) ;
#70 = DATE_AND_TIME ( #176, #174 ) ;
#71 = ORIENTED_EDGE ( 'NONE', *, *, #177, .T. ) ;
#72 = APPROVAL_ROLE ( '' ) ;
#73 = DIRECTION ( 'NONE',  ( -3.209883240645433084E-31, -1.000000000000000000, -9.035018104045982860E-17 ) ) ;
#74 = CARTESIAN_POINT ( 'NONE',  ( 6.047423072554910045E-16, -2.121150477449812351E-17, 0.1732050807568876194 ) ) ;
#75 = VERTEX_POINT ( 'NONE', #16 ) ;
#76 = DIRECTION ( 'NONE',  ( -3.491481338843133355E-15, 1.224646799147353207E-16, -1.000000000000000000 ) ) ;
#77 = ADVANCED_FACE ( 'NONE', ( #183 ), #165, .T. ) ;
#78 = APPLICATION_PROTOCOL_DEFINITION ( 'international standard', 'config_control_design', 1994, #184 ) ;
#79 = DATE_TIME_ROLE ( 'creation_date' ) ;
#80 = AXIS2_PLACEMENT_3D ( 'NONE', #133, #42, #39 ) ;
#81 = MANIFOLD_SOLID_BREP ( 'Corps-Déplacer/Copier1[1]', #24 ) ;
#82 = EDGE_CURVE ( 'NONE', #156, #156, #50, .T. ) ;
#83 = COORDINATED_UNIVERSAL_TIME_OFFSET ( 1, 0, .AHEAD. ) ;
#84 = APPROVAL_DATE_TIME ( #22, #134 ) ;
#85 = DATE_AND_TIME ( #144, #53 ) ;
#86 = UNCERTAINTY_MEASURE_WITH_UNIT (LENGTH_MEASURE( 1.000000000000000082E-05 ), #189, 'distance_accuracy_value', 'NONE');
#87 = AXIS2_PLACEMENT_3D ( 'NONE', #13, #89, #54 ) ;
#88 = EDGE_LOOP ( 'NONE', ( #135 ) ) ;
#89 = DIRECTION ( 'NONE',  ( -3.491481338843133355E-15, 1.224646799147353207E-16, -1.000000000000000000 ) ) ;
#90 = AXIS2_PLACEMENT_3D ( 'NONE', #125, #137, #64 ) ;
#91 = CARTESIAN_POINT ( 'NONE',  ( 2.094888803305880013E-14, 2.249639673992753227E-33, 6.000000000000000000 ) ) ;
#92 = EDGE_LOOP ( 'NONE', ( #160 ) ) ;
#93 = AXIS2_PLACEMENT_3D ( 'NONE', #91, #10, #198 ) ;
#94 = COORDINATED_UNIVERSAL_TIME_OFFSET ( 1, 0, .AHEAD. ) ;
#95 = CARTESIAN_POINT ( 'NONE',  ( 0.0000000000000000000, 0.0000000000000000000, 0.0000000000000000000 ) ) ;
#96 = CARTESIAN_POINT ( 'NONE',  ( 0.0000000000000000000, 0.0000000000000000000, 0.0000000000000000000 ) ) ;
#97 = COORDINATED_UNIVERSAL_TIME_OFFSET ( 1, 0, .AHEAD. ) ;
#98 = CONICAL_SURFACE ( 'NONE', #80, 0.2000000000000000389, 0.7853981633974512766 ) ;
#99 = FACE_OUTER_BOUND ( 'NONE', #92, .T. ) ;
#100 = ORIENTED_EDGE ( 'NONE', *, *, #195, .F. ) ;
#101 = CALENDAR_DATE ( 2021, 6, 10 ) ;
#102 = DIRECTION ( 'NONE',  ( -3.491481338843133355E-15, 1.224646799147353207E-16, -1.000000000000000000 ) ) ;
#103 = CC_DESIGN_DATE_AND_TIME_ASSIGNMENT ( #85, #79, ( #155 ) ) ;
#104 = PRODUCT_DEFINITION_SHAPE ( 'NONE', 'NONE',  #155 ) ;
#105 = PLANE ( 'NONE',  #126 ) ;
#106 = CC_DESIGN_PERSON_AND_ORGANIZATION_ASSIGNMENT ( #1, #117, ( #55 ) ) ;
#107 = EDGE_LOOP ( 'NONE', ( #71 ) ) ;
#108 = APPROVAL_PERSON_ORGANIZATION ( #142, #11, #179 ) ;
#109 = DIRECTION ( 'NONE',  ( -3.491481338843133355E-15, 1.224646799147353207E-16, -1.000000000000000000 ) ) ;
#110 = FACE_OUTER_BOUND ( 'NONE', #123, .T. ) ;
#111 = CARTESIAN_POINT ( 'NONE',  ( 6.047423072554910045E-16, -2.121150477449812351E-17, 0.1732050807568876194 ) ) ;
#112 = PERSON_AND_ORGANIZATION_ROLE ( 'creator' ) ;
#113 = APPROVAL_DATE_TIME ( #38, #11 ) ;
#114 = SHAPE_DEFINITION_REPRESENTATION ( #104, #56 ) ;
#115 = CC_DESIGN_PERSON_AND_ORGANIZATION_ASSIGNMENT ( #200, #19, ( #57 ) ) ;
#116 = DIRECTION ( 'NONE',  ( 3.491481338843133355E-15, -1.224646799147353207E-16, 1.000000000000000000 ) ) ;
#117 = PERSON_AND_ORGANIZATION_ROLE ( 'classification_officer' ) ;
#118 = EDGE_LOOP ( 'NONE', ( #164 ) ) ;
#119 = CONICAL_SURFACE ( 'NONE', #178, 0.2999999999999962697, 1.047197551196592746 ) ;
#120 = DIRECTION ( 'NONE',  ( -4.275831445896958607E-31, -1.000000000000000000, -1.224646799147353207E-16 ) ) ;
#121 = CC_DESIGN_PERSON_AND_ORGANIZATION_ASSIGNMENT ( #143, #2, ( #146 ) ) ;
#122 = PRODUCT_RELATED_PRODUCT_CATEGORY ( 'detail', '', ( #57 ) ) ;
#123 = EDGE_LOOP ( 'NONE', ( #59 ) ) ;
#124 = EDGE_LOOP ( 'NONE', ( #196 ) ) ;
#125 = CARTESIAN_POINT ( 'NONE',  ( 2.094888803305880013E-14, -7.347880794884119736E-16, 6.000000000000000000 ) ) ;
#126 = AXIS2_PLACEMENT_3D ( 'NONE', #193, #132, #120 ) ;
#127 = AXIS2_PLACEMENT_3D ( 'NONE', #185, #192, #149 ) ;
#128 = PERSON_AND_ORGANIZATION ( #173, #35 ) ;
#129 = APPROVAL_STATUS ( 'not_yet_approved' ) ;
#130 = COORDINATED_UNIVERSAL_TIME_OFFSET ( 1, 0, .AHEAD. ) ;
#131 = EDGE_LOOP ( 'NONE', ( #60 ) ) ;
#132 = DIRECTION ( 'NONE',  ( 3.491481338843133355E-15, -1.224646799147353207E-16, 1.000000000000000000 ) ) ;
#133 = CARTESIAN_POINT ( 'NONE',  ( 1.047444401652940007E-13, -3.673940397442059178E-15, 30.00000000000000000 ) ) ;
#134 = APPROVAL ( #167, 'UNSPECIFIED' ) ;
#135 = ORIENTED_EDGE ( 'NONE', *, *, #20, .T. ) ;
#136 = FACE_OUTER_BOUND ( 'NONE', #43, .T. ) ;
#137 = DIRECTION ( 'NONE',  ( -3.491481338843133355E-15, 1.224646799147353207E-16, -1.000000000000000000 ) ) ;
#138 = AXIS2_PLACEMENT_3D ( 'NONE', #140, #76, #32 ) ;
#139 = CC_DESIGN_PERSON_AND_ORGANIZATION_ASSIGNMENT ( #147, #5, ( #146 ) ) ;
#140 = CARTESIAN_POINT ( 'NONE',  ( 1.043952920314096810E-13, -3.661693929450586610E-15, 29.89999999999999858 ) ) ;
#141 = CC_DESIGN_APPROVAL ( #11, ( #146 ) ) ;
#142 = PERSON_AND_ORGANIZATION ( #173, #35 ) ;
#143 = PERSON_AND_ORGANIZATION ( #173, #35 ) ;
#144 = CALENDAR_DATE ( 2021, 6, 10 ) ;
#145 = PERSON_AND_ORGANIZATION ( #173, #35 ) ;
#146 = PRODUCT_DEFINITION_FORMATION_WITH_SPECIFIED_SOURCE ( 'ANY', '', #57, .NOT_KNOWN. ) ;
#147 = PERSON_AND_ORGANIZATION ( #173, #35 ) ;
#148 =( GEOMETRIC_REPRESENTATION_CONTEXT ( 3 ) GLOBAL_UNCERTAINTY_ASSIGNED_CONTEXT ( ( #86 ) ) GLOBAL_UNIT_ASSIGNED_CONTEXT ( ( #189, #201, #48 ) ) REPRESENTATION_CONTEXT ( 'NONE', 'WORKASPACE' ) );
#149 = DIRECTION ( 'NONE',  ( 0.0000000000000000000, 1.000000000000000000, 0.0000000000000000000 ) ) ;
#150 = CALENDAR_DATE ( 2021, 6, 10 ) ;
#151 = ADVANCED_FACE ( 'NONE', ( #188, #110 ), #15, .T. ) ;
#152 = DIRECTION ( 'NONE',  ( 0.0000000000000000000, 0.0000000000000000000, 1.000000000000000000 ) ) ;
#153 = CARTESIAN_POINT ( 'NONE',  ( 2.094888803305880013E-14, 0.2999999999999962697, 6.000000000000000000 ) ) ;
#154 = AXIS2_PLACEMENT_3D ( 'NONE', #95, #152, #34 ) ;
#155 = PRODUCT_DEFINITION ( 'UNKNOWN', '', #146, #191 ) ;
#156 = VERTEX_POINT ( 'NONE', #153 ) ;
#157 = PERSON_AND_ORGANIZATION ( #173, #35 ) ;
#158 = AXIS2_PLACEMENT_3D ( 'NONE', #40, #102, #159 ) ;
#159 = DIRECTION ( 'NONE',  ( 4.275831445896959482E-31, 1.000000000000000000, 1.224646799147353207E-16 ) ) ;
#160 = ORIENTED_EDGE ( 'NONE', *, *, #177, .F. ) ;
#161 = COORDINATED_UNIVERSAL_TIME_OFFSET ( 1, 0, .AHEAD. ) ;
#162 = CIRCLE ( 'NONE', #127, 0.2999999999999970468 ) ;
#163 = ADVANCED_FACE ( 'NONE', ( #44 ), #63, .F. ) ;
#164 = ORIENTED_EDGE ( 'NONE', *, *, #20, .F. ) ;
#165 = PLANE ( 'NONE',  #93 ) ;
#166 = ORIENTED_EDGE ( 'NONE', *, *, #82, .T. ) ;
#167 = APPROVAL_STATUS ( 'not_yet_approved' ) ;
#168 = LOCAL_TIME ( 11, 22, 49.00000000000000000, #130 ) ;
#169 = CC_DESIGN_SECURITY_CLASSIFICATION ( #55, ( #146 ) ) ;
#170 = DIRECTION ( 'NONE',  ( 4.275831445896959482E-31, 1.000000000000000000, 1.224646799147353207E-16 ) ) ;
#171 = CARTESIAN_POINT ( 'NONE',  ( 1.047444401652940007E-13, 0.1999999999999963474, 30.00000000000000000 ) ) ;
#172 = VERTEX_POINT ( 'NONE', #36 ) ;
#173 = PERSON ( 'UNSPECIFIED', 'UNSPECIFIED', 'UNSPECIFIED', ('UNSPECIFIED'), ('UNSPECIFIED'), ('UNSPECIFIED') ) ;
#174 = LOCAL_TIME ( 11, 22, 49.00000000000000000, #161 ) ;
#175 = MECHANICAL_CONTEXT ( 'NONE', #49, 'mechanical' ) ;
#176 = CALENDAR_DATE ( 2021, 6, 10 ) ;
#177 = EDGE_CURVE ( 'NONE', #75, #75, #12, .T. ) ;
#178 = AXIS2_PLACEMENT_3D ( 'NONE', #74, #116, #73 ) ;
#179 = APPROVAL_ROLE ( '' ) ;
#180 = FACE_BOUND ( 'NONE', #124, .T. ) ;
#181 = CC_DESIGN_PERSON_AND_ORGANIZATION_ASSIGNMENT ( #157, #112, ( #155 ) ) ;
#182 = FACE_OUTER_BOUND ( 'NONE', #7, .T. ) ;
#183 = FACE_OUTER_BOUND ( 'NONE', #29, .T. ) ;
#184 = APPLICATION_CONTEXT ( 'configuration controlled 3d designs of mechanical parts and assemblies' ) ;
#185 = CARTESIAN_POINT ( 'NONE',  ( 2.094888803305880013E-14, -7.347880794884119736E-16, 6.000000000000000000 ) ) ;
#186 = CARTESIAN_POINT ( 'NONE',  ( 2.094888803305880013E-14, 0.2999999999999962697, 6.000000000000000000 ) ) ;
#187 = APPROVAL ( #25, 'UNSPECIFIED' ) ;
#188 = FACE_OUTER_BOUND ( 'NONE', #118, .T. ) ;
#189 =( LENGTH_UNIT ( ) NAMED_UNIT ( * ) SI_UNIT ( .MILLI., .METRE. ) );
#190 = CIRCLE ( 'NONE', #87, 0.2000000000000000389 ) ;
#191 = DESIGN_CONTEXT ( 'detailed design', #184, 'design' ) ;
#192 = DIRECTION ( 'NONE',  ( -3.491481338843133355E-15, 1.224646799147353207E-16, -1.000000000000000000 ) ) ;
#193 = CARTESIAN_POINT ( 'NONE',  ( 2.094888803305880013E-14, 2.249639673992753227E-33, 6.000000000000000000 ) ) ;
#194 = CC_DESIGN_APPROVAL ( #187, ( #55 ) ) ;
#195 = EDGE_CURVE ( 'NONE', #172, #172, #17, .T. ) ;
#196 = ORIENTED_EDGE ( 'NONE', *, *, #27, .T. ) ;
#197 = DIRECTION ( 'NONE',  ( -3.491481338843133355E-15, 1.224646799147353207E-16, -1.000000000000000000 ) ) ;
#198 = DIRECTION ( 'NONE',  ( -4.275831445896958607E-31, -1.000000000000000000, -1.224646799147353207E-16 ) ) ;
#199 = LOCAL_TIME ( 11, 22, 49.00000000000000000, #94 ) ;
#200 = PERSON_AND_ORGANIZATION ( #173, #35 ) ;
#201 =( NAMED_UNIT ( * ) PLANE_ANGLE_UNIT ( ) SI_UNIT ( $, .RADIAN. ) );
#202 = LOCAL_TIME ( 11, 22, 49.00000000000000000, #97 ) ;
#203 = DATE_AND_TIME ( #101, #168 ) ;
ENDSEC;
END-ISO-10303-21;
