ISO-10303-21;
HEADER;
FILE_DESCRIPTION (( 'STEP AP203' ),
    '1' );
FILE_NAME ('53518.step',
    '2021-10-08T05:54:03',
    ( '' ),
    ( '' ),
    'SwSTEP 2.0',
    'SolidWorks 2019',
    '' );
FILE_SCHEMA (( 'CONFIG_CONTROL_DESIGN' ));
ENDSEC;

DATA;
#1 = APPROVAL_PERSON_ORGANIZATION ( #65, #63, #30 ) ;
#2 = CARTESIAN_POINT ( 'NONE',  ( 0.0000000000000000000, 0.0000000000000000000, 0.0000000000000000000 ) ) ;
#3 = CARTESIAN_POINT ( 'NONE',  ( 1.047444401652940007E-13, -3.673940397442059178E-15, 30.00000000000000000 ) ) ;
#4 = PLANE ( 'NONE',  #134 ) ;
#5 = CONICAL_SURFACE ( 'NONE', #120, 0.5499999999999990452, 0.7853981633974604915 ) ;
#6 = DIRECTION ( 'NONE',  ( -4.275831445896958607E-31, -1.000000000000000000, -1.224646799147353207E-16 ) ) ;
#7 = DIRECTION ( 'NONE',  ( 3.491481338843133355E-15, -1.224646799147353207E-16, 1.000000000000000000 ) ) ;
#8 = DATE_AND_TIME ( #185, #88 ) ;
#9 = AXIS2_PLACEMENT_3D ( 'NONE', #39, #7, #177 ) ;
#10 = DATE_TIME_ROLE ( 'creation_date' ) ;
#11 = PERSON_AND_ORGANIZATION ( #102, #84 ) ;
#12 = AXIS2_PLACEMENT_3D ( 'NONE', #168, #47, #100 ) ;
#13 = CARTESIAN_POINT ( 'NONE',  ( 3.958838484084748165E-14, 0.7499999999999963363, 11.33856406460550659 ) ) ;
#14 = CALENDAR_DATE ( 2021, 8, 10 ) ;
#15 = SECURITY_CLASSIFICATION_LEVEL ( 'unclassified' ) ;
#16 = APPROVAL ( #78, 'UNSPECIFIED' ) ;
#17 = CC_DESIGN_APPROVAL ( #63, ( #130 ) ) ;
#18 = ORIENTED_EDGE ( 'NONE', *, *, #206, .T. ) ;
#19 = EDGE_LOOP ( 'NONE', ( #153 ) ) ;
#20 = CARTESIAN_POINT ( 'NONE',  ( 1.040461438975253866E-13, -3.649447461459112464E-15, 29.80000000000000426 ) ) ;
#21 = CLOSED_SHELL ( 'NONE', ( #210, #68, #22, #25, #148 ) ) ;
#22 = ADVANCED_FACE ( 'NONE', ( #58, #138 ), #209, .T. ) ;
#23 = CYLINDRICAL_SURFACE ( 'NONE', #166, 0.6699999999999999289 ) ;
#24 = DIRECTION ( 'NONE',  ( 4.275831445896958607E-31, 1.000000000000000000, 1.224646799147353454E-16 ) ) ;
#25 = ADVANCED_FACE ( 'NONE', ( #90, #156 ), #5, .T. ) ;
#26 = DIRECTION ( 'NONE',  ( -3.491481338843133355E-15, 1.224646799147353207E-16, -1.000000000000000000 ) ) ;
#27 = CARTESIAN_POINT ( 'NONE',  ( 0.0000000000000000000, 0.0000000000000000000, 0.0000000000000000000 ) ) ;
#28 = MANIFOLD_SOLID_BREP ( 'Corps-Déplacer/Copier1[1]', #21 ) ;
#29 = DATE_AND_TIME ( #119, #194 ) ;
#30 = APPROVAL_ROLE ( '' ) ;
#31 = AXIS2_PLACEMENT_3D ( 'NONE', #174, #139, #179 ) ;
#32 = APPROVAL_PERSON_ORGANIZATION ( #75, #16, #142 ) ;
#33 = VERTEX_POINT ( 'NONE', #13 ) ;
#34 = CC_DESIGN_APPROVAL ( #16, ( #143 ) ) ;
#35 = ORIENTED_EDGE ( 'NONE', *, *, #206, .F. ) ;
#36 = DATE_AND_TIME ( #14, #215 ) ;
#37 = ORIENTED_EDGE ( 'NONE', *, *, #203, .F. ) ;
#38 = FACE_OUTER_BOUND ( 'NONE', #67, .T. ) ;
#39 = CARTESIAN_POINT ( 'NONE',  ( 3.910459099504309989E-14, -2.074181599541595023E-31, 11.20000000000000107 ) ) ;
#40 = CARTESIAN_POINT ( 'NONE',  ( 3.910459099504309989E-14, -2.074181599541595023E-31, 11.20000000000000107 ) ) ;
#41 = DIRECTION ( 'NONE',  ( 0.0000000000000000000, 1.000000000000000000, 0.0000000000000000000 ) ) ;
#42 = VERTEX_POINT ( 'NONE', #44 ) ;
#43 = PERSON_AND_ORGANIZATION_ROLE ( 'design_owner' ) ;
#44 = CARTESIAN_POINT ( 'NONE',  ( 1.047444401652940007E-13, 0.5499999999999953815, 30.00000000000000000 ) ) ;
#45 = VERTEX_POINT ( 'NONE', #114 ) ;
#46 = ADVANCED_BREP_SHAPE_REPRESENTATION ( '53518', ( #28, #173, #12 ), #79 ) ;
#47 = DIRECTION ( 'NONE',  ( 0.0000000000000000000, 0.0000000000000000000, 1.000000000000000000 ) ) ;
#48 = APPLICATION_CONTEXT ( 'configuration controlled 3d designs of mechanical parts and assemblies' ) ;
#49 = APPROVAL_PERSON_ORGANIZATION ( #80, #180, #85 ) ;
#50 = COORDINATED_UNIVERSAL_TIME_OFFSET ( 1, 0, .AHEAD. ) ;
#51 = AXIS2_PLACEMENT_3D ( 'NONE', #2, #141, #24 ) ;
#52 = EDGE_LOOP ( 'NONE', ( #83 ) ) ;
#53 = DIRECTION ( 'NONE',  ( 0.0000000000000000000, 1.000000000000000000, 0.0000000000000000000 ) ) ;
#54 = FACE_BOUND ( 'NONE', #149, .T. ) ;
#55 = CC_DESIGN_APPROVAL ( #180, ( #154 ) ) ;
#56 = CARTESIAN_POINT ( 'NONE',  ( 3.910459099504309989E-14, -1.371604415045035710E-15, 11.20000000000000107 ) ) ;
#57 = FACE_OUTER_BOUND ( 'NONE', #19, .T. ) ;
#58 = FACE_OUTER_BOUND ( 'NONE', #122, .T. ) ;
#59 = AXIS2_PLACEMENT_3D ( 'NONE', #128, #89, #213 ) ;
#60 = DATE_AND_TIME ( #145, #135 ) ;
#61 = PERSON_AND_ORGANIZATION ( #102, #84 ) ;
#62 = VERTEX_POINT ( 'NONE', #146 ) ;
#63 = APPROVAL ( #133, 'UNSPECIFIED' ) ;
#64 =( NAMED_UNIT ( * ) PLANE_ANGLE_UNIT ( ) SI_UNIT ( $, .RADIAN. ) );
#65 = PERSON_AND_ORGANIZATION ( #102, #84 ) ;
#66 = DATE_AND_TIME ( #82, #175 ) ;
#67 = EDGE_LOOP ( 'NONE', ( #73 ) ) ;
#68 = ADVANCED_FACE ( 'NONE', ( #54, #57 ), #113, .T. ) ;
#69 = APPROVAL_STATUS ( 'not_yet_approved' ) ;
#70 = CARTESIAN_POINT ( 'NONE',  ( 3.958838484084748165E-14, -1.388573618864633854E-15, 11.33856406460550659 ) ) ;
#71 = FACE_OUTER_BOUND ( 'NONE', #170, .T. ) ;
#72 = DIRECTION ( 'NONE',  ( -3.491481338843133355E-15, 1.224646799147353207E-16, -1.000000000000000000 ) ) ;
#73 = ORIENTED_EDGE ( 'NONE', *, *, #203, .T. ) ;
#74 = FACE_OUTER_BOUND ( 'NONE', #52, .T. ) ;
#75 = PERSON_AND_ORGANIZATION ( #102, #84 ) ;
#76 = AXIS2_PLACEMENT_3D ( 'NONE', #161, #26, #140 ) ;
#77 = PERSON_AND_ORGANIZATION_ROLE ( 'design_supplier' ) ;
#78 = APPROVAL_STATUS ( 'not_yet_approved' ) ;
#79 =( GEOMETRIC_REPRESENTATION_CONTEXT ( 3 ) GLOBAL_UNCERTAINTY_ASSIGNED_CONTEXT ( ( #162 ) ) GLOBAL_UNIT_ASSIGNED_CONTEXT ( ( #184, #64, #99 ) ) REPRESENTATION_CONTEXT ( 'NONE', 'WORKASPACE' ) );
#80 = PERSON_AND_ORGANIZATION ( #102, #84 ) ;
#81 = ADVANCED_FACE ( 'NONE', ( #195 ), #150, .T. ) ;
#82 = CALENDAR_DATE ( 2021, 8, 10 ) ;
#83 = ORIENTED_EDGE ( 'NONE', *, *, #187, .T. ) ;
#84 = ORGANIZATION ( 'UNSPECIFIED', 'UNSPECIFIED', '' ) ;
#85 = APPROVAL_ROLE ( '' ) ;
#86 = PRODUCT_DEFINITION_SHAPE ( 'NONE', 'NONE',  #130 ) ;
#87 = ORIENTED_EDGE ( 'NONE', *, *, #125, .F. ) ;
#88 = LOCAL_TIME ( 7, 54, 3.000000000000000000, #163 ) ;
#89 = DIRECTION ( 'NONE',  ( 3.491481338843133355E-15, -1.224646799147353207E-16, 1.000000000000000000 ) ) ;
#90 = FACE_OUTER_BOUND ( 'NONE', #222, .T. ) ;
#91 = DIRECTION ( 'NONE',  ( -3.491481338843133355E-15, 1.224646799147353207E-16, -1.000000000000000000 ) ) ;
#92 = DIRECTION ( 'NONE',  ( 0.0000000000000000000, 1.000000000000000000, 0.0000000000000000000 ) ) ;
#93 = AXIS2_PLACEMENT_3D ( 'NONE', #20, #196, #193 ) ;
#94 = FACE_OUTER_BOUND ( 'NONE', #198, .T. ) ;
#95 = PERSON_AND_ORGANIZATION_ROLE ( 'creator' ) ;
#96 = CARTESIAN_POINT ( 'NONE',  ( 3.910459099504309989E-14, 0.6699999999999995959, 11.20000000000000107 ) ) ;
#97 = CC_DESIGN_SECURITY_CLASSIFICATION ( #154, ( #143 ) ) ;
#98 = CC_DESIGN_PERSON_AND_ORGANIZATION_ASSIGNMENT ( #11, #43, ( #151 ) ) ;
#99 =( NAMED_UNIT ( * ) SI_UNIT ( $, .STERADIAN. ) SOLID_ANGLE_UNIT ( ) );
#100 = DIRECTION ( 'NONE',  ( 1.000000000000000000, 0.0000000000000000000, 0.0000000000000000000 ) ) ;
#101 = APPROVAL_DATE_TIME ( #66, #180 ) ;
#102 = PERSON ( 'UNSPECIFIED', 'UNSPECIFIED', 'UNSPECIFIED', ('UNSPECIFIED'), ('UNSPECIFIED'), ('UNSPECIFIED') ) ;
#103 = EDGE_LOOP ( 'NONE', ( #205 ) ) ;
#104 = CIRCLE ( 'NONE', #117, 0.5499999999999990452 ) ;
#105 = EDGE_LOOP ( 'NONE', ( #18 ) ) ;
#106 = DIRECTION ( 'NONE',  ( 0.0000000000000000000, 1.000000000000000000, 0.0000000000000000000 ) ) ;
#107 = AXIS2_PLACEMENT_3D ( 'NONE', #70, #131, #92 ) ;
#108 = DIRECTION ( 'NONE',  ( -3.491481338843133355E-15, 1.224646799147353207E-16, -1.000000000000000000 ) ) ;
#109 = EDGE_CURVE ( 'NONE', #165, #165, #211, .T. ) ;
#110 = DIRECTION ( 'NONE',  ( 3.491481338843133355E-15, -1.224646799147353207E-16, 1.000000000000000000 ) ) ;
#111 = ADVANCED_FACE ( 'NONE', ( #212 ), #155, .T. ) ;
#112 = ORIENTED_EDGE ( 'NONE', *, *, #109, .F. ) ;
#113 = CONICAL_SURFACE ( 'NONE', #31, 0.7499999999999977796, 0.5235987755982951519 ) ;
#114 = CARTESIAN_POINT ( 'NONE',  ( 3.910459099504309989E-14, 0.6699999999999995959, 11.20000000000000107 ) ) ;
#115 = PERSON_AND_ORGANIZATION ( #102, #84 ) ;
#116 = APPLICATION_CONTEXT ( 'configuration controlled 3d designs of mechanical parts and assemblies' ) ;
#117 = AXIS2_PLACEMENT_3D ( 'NONE', #178, #91, #197 ) ;
#118 = VERTEX_POINT ( 'NONE', #96 ) ;
#119 = CALENDAR_DATE ( 2021, 8, 10 ) ;
#120 = AXIS2_PLACEMENT_3D ( 'NONE', #3, #158, #41 ) ;
#121 = CC_DESIGN_DATE_AND_TIME_ASSIGNMENT ( #36, #152, ( #154 ) ) ;
#122 = EDGE_LOOP ( 'NONE', ( #87 ) ) ;
#123 = AXIS2_PLACEMENT_3D ( 'NONE', #40, #110, #6 ) ;
#124 = EDGE_LOOP ( 'NONE', ( #192 ) ) ;
#125 = EDGE_CURVE ( 'NONE', #33, #33, #159, .T. ) ;
#126 = DESIGN_CONTEXT ( 'detailed design', #116, 'design' ) ;
#127 = CIRCLE ( 'NONE', #93, 0.7499999999999992228 ) ;
#128 = CARTESIAN_POINT ( 'NONE',  ( 1.350591152870610513E-15, -4.737236066304629932E-17, 0.3868246803570529746 ) ) ;
#129 = DIRECTION ( 'NONE',  ( -3.491481338843133355E-15, 1.224646799147353207E-16, -1.000000000000000000 ) ) ;
#130 = PRODUCT_DEFINITION ( 'UNKNOWN', '', #143, #126 ) ;
#131 = DIRECTION ( 'NONE',  ( -3.491481338843133355E-15, 1.224646799147353207E-16, -1.000000000000000000 ) ) ;
#132 = CARTESIAN_POINT ( 'NONE',  ( 1.047444401652940007E-13, 4.124339402320045473E-33, 30.00000000000000000 ) ) ;
#133 = APPROVAL_STATUS ( 'not_yet_approved' ) ;
#134 = AXIS2_PLACEMENT_3D ( 'NONE', #132, #108, #137 ) ;
#135 = LOCAL_TIME ( 7, 54, 3.000000000000000000, #216 ) ;
#136 = EDGE_CURVE ( 'NONE', #42, #42, #104, .T. ) ;
#137 = DIRECTION ( 'NONE',  ( 4.275831445896958607E-31, 1.000000000000000000, 1.224646799147353207E-16 ) ) ;
#138 = FACE_OUTER_BOUND ( 'NONE', #105, .T. ) ;
#139 = DIRECTION ( 'NONE',  ( 3.491481338843133355E-15, -1.224646799147353207E-16, 1.000000000000000000 ) ) ;
#140 = DIRECTION ( 'NONE',  ( 2.874522305055580763E-31, 1.000000000000000000, 1.618212197739561594E-16 ) ) ;
#141 = DIRECTION ( 'NONE',  ( -3.491481338843133355E-15, 1.224646799147353207E-16, -1.000000000000000000 ) ) ;
#142 = APPROVAL_ROLE ( '' ) ;
#143 = PRODUCT_DEFINITION_FORMATION_WITH_SPECIFIED_SOURCE ( 'ANY', '', #151, .NOT_KNOWN. ) ;
#144 = ADVANCED_FACE ( 'NONE', ( #71, #74 ), #23, .T. ) ;
#145 = CALENDAR_DATE ( 2021, 8, 10 ) ;
#146 = CARTESIAN_POINT ( 'NONE',  ( 1.040461438975253866E-13, 0.7499999999999955591, 29.80000000000000426 ) ) ;
#147 = PERSON_AND_ORGANIZATION_ROLE ( 'creator' ) ;
#148 = ADVANCED_FACE ( 'NONE', ( #94 ), #4, .F. ) ;
#149 = EDGE_LOOP ( 'NONE', ( #37 ) ) ;
#150 = CONICAL_SURFACE ( 'NONE', #59, 0.6699999999999988187, 1.047197551196592746 ) ;
#151 = PRODUCT ( '53518', '53518', '', ( #201 ) ) ;
#152 = DATE_TIME_ROLE ( 'classification_date' ) ;
#153 = ORIENTED_EDGE ( 'NONE', *, *, #125, .T. ) ;
#154 = SECURITY_CLASSIFICATION ( '', '', #15 ) ;
#155 = PLANE ( 'NONE',  #9 ) ;
#156 = FACE_BOUND ( 'NONE', #172, .T. ) ;
#157 = CC_DESIGN_PERSON_AND_ORGANIZATION_ASSIGNMENT ( #188, #202, ( #154 ) ) ;
#158 = DIRECTION ( 'NONE',  ( -3.491481338843133355E-15, 1.224646799147353207E-16, -1.000000000000000000 ) ) ;
#159 = CIRCLE ( 'NONE', #107, 0.7499999999999977796 ) ;
#160 = DIRECTION ( 'NONE',  ( -3.491481338843133355E-15, 1.224646799147353207E-16, -1.000000000000000000 ) ) ;
#161 = CARTESIAN_POINT ( 'NONE',  ( 1.350591152870610513E-15, -4.737236066304629932E-17, 0.3868246803570529746 ) ) ;
#162 = UNCERTAINTY_MEASURE_WITH_UNIT (LENGTH_MEASURE( 1.000000000000000082E-05 ), #184, 'distance_accuracy_value', 'NONE');
#163 = COORDINATED_UNIVERSAL_TIME_OFFSET ( 1, 0, .AHEAD. ) ;
#164 = PRODUCT_RELATED_PRODUCT_CATEGORY ( 'detail', '', ( #151 ) ) ;
#165 = VERTEX_POINT ( 'NONE', #199 ) ;
#166 = AXIS2_PLACEMENT_3D ( 'NONE', #27, #160, #214 ) ;
#167 = APPLICATION_PROTOCOL_DEFINITION ( 'international standard', 'config_control_design', 1994, #48 ) ;
#168 = CARTESIAN_POINT ( 'NONE',  ( 0.0000000000000000000, 0.0000000000000000000, 0.0000000000000000000 ) ) ;
#169 = CC_DESIGN_PERSON_AND_ORGANIZATION_ASSIGNMENT ( #217, #77, ( #143 ) ) ;
#170 = EDGE_LOOP ( 'NONE', ( #112 ) ) ;
#171 = CLOSED_SHELL ( 'NONE', ( #81, #144, #111 ) ) ;
#172 = EDGE_LOOP ( 'NONE', ( #191 ) ) ;
#173 = MANIFOLD_SOLID_BREP ( 'Corps-Déplacer/Copier1[2]', #171 ) ;
#174 = CARTESIAN_POINT ( 'NONE',  ( 3.958838484084748165E-14, -1.388573618864633854E-15, 11.33856406460550659 ) ) ;
#175 = LOCAL_TIME ( 7, 54, 3.000000000000000000, #221 ) ;
#176 = PLANE ( 'NONE',  #123 ) ;
#177 = DIRECTION ( 'NONE',  ( -4.275831445896958607E-31, -1.000000000000000000, -1.224646799147353207E-16 ) ) ;
#178 = CARTESIAN_POINT ( 'NONE',  ( 1.047444401652940007E-13, -3.673940397442059178E-15, 30.00000000000000000 ) ) ;
#179 = DIRECTION ( 'NONE',  ( 0.0000000000000000000, -1.000000000000000000, 0.0000000000000000000 ) ) ;
#180 = APPROVAL ( #69, 'UNSPECIFIED' ) ;
#181 = APPROVAL_DATE_TIME ( #60, #16 ) ;
#182 = APPROVAL_DATE_TIME ( #29, #63 ) ;
#183 = CC_DESIGN_DATE_AND_TIME_ASSIGNMENT ( #8, #10, ( #130 ) ) ;
#184 =( LENGTH_UNIT ( ) NAMED_UNIT ( * ) SI_UNIT ( .MILLI., .METRE. ) );
#185 = CALENDAR_DATE ( 2021, 8, 10 ) ;
#186 = AXIS2_PLACEMENT_3D ( 'NONE', #56, #129, #106 ) ;
#187 = EDGE_CURVE ( 'NONE', #118, #118, #204, .T. ) ;
#188 = PERSON_AND_ORGANIZATION ( #102, #84 ) ;
#189 = ORIENTED_EDGE ( 'NONE', *, *, #136, .F. ) ;
#190 = CIRCLE ( 'NONE', #186, 0.6700000000000010392 ) ;
#191 = ORIENTED_EDGE ( 'NONE', *, *, #136, .T. ) ;
#192 = ORIENTED_EDGE ( 'NONE', *, *, #187, .F. ) ;
#193 = DIRECTION ( 'NONE',  ( 0.0000000000000000000, 1.000000000000000000, 0.0000000000000000000 ) ) ;
#194 = LOCAL_TIME ( 7, 54, 3.000000000000000000, #218 ) ;
#195 = FACE_OUTER_BOUND ( 'NONE', #103, .T. ) ;
#196 = DIRECTION ( 'NONE',  ( -3.491481338843133355E-15, 1.224646799147353207E-16, -1.000000000000000000 ) ) ;
#197 = DIRECTION ( 'NONE',  ( 0.0000000000000000000, 1.000000000000000000, 0.0000000000000000000 ) ) ;
#198 = EDGE_LOOP ( 'NONE', ( #189 ) ) ;
#199 = CARTESIAN_POINT ( 'NONE',  ( 1.350591152870610710E-15, 0.6699999999999988187, 0.3868246803570530856 ) ) ;
#200 = CC_DESIGN_PERSON_AND_ORGANIZATION_ASSIGNMENT ( #61, #147, ( #143 ) ) ;
#201 = MECHANICAL_CONTEXT ( 'NONE', #48, 'mechanical' ) ;
#202 = PERSON_AND_ORGANIZATION_ROLE ( 'classification_officer' ) ;
#203 = EDGE_CURVE ( 'NONE', #45, #45, #190, .T. ) ;
#204 = CIRCLE ( 'NONE', #207, 0.6700000000000010392 ) ;
#205 = ORIENTED_EDGE ( 'NONE', *, *, #109, .T. ) ;
#206 = EDGE_CURVE ( 'NONE', #62, #62, #127, .T. ) ;
#207 = AXIS2_PLACEMENT_3D ( 'NONE', #208, #72, #53 ) ;
#208 = CARTESIAN_POINT ( 'NONE',  ( 3.910459099504309989E-14, -1.371604415045035710E-15, 11.20000000000000107 ) ) ;
#209 = CYLINDRICAL_SURFACE ( 'NONE', #51, 0.7499999999999984457 ) ;
#210 = ADVANCED_FACE ( 'NONE', ( #38 ), #176, .F. ) ;
#211 = CIRCLE ( 'NONE', #76, 0.6699999999999988187 ) ;
#212 = FACE_OUTER_BOUND ( 'NONE', #124, .T. ) ;
#213 = DIRECTION ( 'NONE',  ( -2.874522305055580763E-31, -1.000000000000000000, -1.618212197739561594E-16 ) ) ;
#214 = DIRECTION ( 'NONE',  ( 4.275831445896958607E-31, 1.000000000000000000, 1.224646799147353207E-16 ) ) ;
#215 = LOCAL_TIME ( 7, 54, 3.000000000000000000, #50 ) ;
#216 = COORDINATED_UNIVERSAL_TIME_OFFSET ( 1, 0, .AHEAD. ) ;
#217 = PERSON_AND_ORGANIZATION ( #102, #84 ) ;
#218 = COORDINATED_UNIVERSAL_TIME_OFFSET ( 1, 0, .AHEAD. ) ;
#219 = APPLICATION_PROTOCOL_DEFINITION ( 'international standard', 'config_control_design', 1994, #116 ) ;
#220 = CC_DESIGN_PERSON_AND_ORGANIZATION_ASSIGNMENT ( #115, #95, ( #130 ) ) ;
#221 = COORDINATED_UNIVERSAL_TIME_OFFSET ( 1, 0, .AHEAD. ) ;
#222 = EDGE_LOOP ( 'NONE', ( #35 ) ) ;
#223 = SHAPE_DEFINITION_REPRESENTATION ( #86, #46 ) ;
ENDSEC;
END-ISO-10303-21;
