ISO-10303-21;
HEADER;
FILE_DESCRIPTION (( 'STEP AP203' ),
    '1' );
FILE_NAME ('53479.step',
    '2021-09-03T07:22:44',
    ( '' ),
    ( '' ),
    'SwSTEP 2.0',
    'SolidWorks 2019',
    '' );
FILE_SCHEMA (( 'CONFIG_CONTROL_DESIGN' ));
ENDSEC;

DATA;
#1 = ORIENTED_EDGE ( 'NONE', *, *, #105, .T. ) ;
#2 = APPROVAL ( #153, 'UNSPECIFIED' ) ;
#3 = AXIS2_PLACEMENT_3D ( 'NONE', #196, #138, #249 ) ;
#4 = EDGE_LOOP ( 'NONE', ( #101, #247, #284, #158 ) ) ;
#5 = PERSON_AND_ORGANIZATION ( #63, #271 ) ;
#6 = CYLINDRICAL_SURFACE ( 'NONE', #3, 4.149999999999992362 ) ;
#7 = AXIS2_PLACEMENT_3D ( 'NONE', #37, #242, #267 ) ;
#8 = VECTOR ( 'NONE', #21, 1000.000000000000114 ) ;
#9 = ORIENTED_EDGE ( 'NONE', *, *, #134, .T. ) ;
#10 = CARTESIAN_POINT ( 'NONE',  ( 9.214487021755137529E-15, 4.149999999999990585, 2.493571568964397134 ) ) ;
#11 = ORIENTED_EDGE ( 'NONE', *, *, #266, .T. ) ;
#12 = ADVANCED_FACE ( 'NONE', ( #275 ), #237, .T. ) ;
#13 = CARTESIAN_POINT ( 'NONE',  ( 9.426999614876460059E-14, 4.149999999999990585, 27.00000000000000000 ) ) ;
#14 = CIRCLE ( 'NONE', #24, 4.149999999999990585 ) ;
#15 = LOCAL_TIME ( 9, 22, 44.00000000000000000, #124 ) ;
#16 = CARTESIAN_POINT ( 'NONE',  ( 1.774470050047234432E-30, 4.149999999999992362, 5.082284216461506282E-16 ) ) ;
#17 = CARTESIAN_POINT ( 'NONE',  ( 8.706258600108984140E-15, -4.149999999999990585, 2.493571568964396246 ) ) ;
#18 = DIRECTION ( 'NONE',  ( 0.0000000000000000000, 1.000000000000000000, 0.0000000000000000000 ) ) ;
#19 = AXIS2_PLACEMENT_3D ( 'NONE', #143, #228, #77 ) ;
#20 = DIRECTION ( 'NONE',  ( 0.0000000000000000000, 1.000000000000000000, 0.0000000000000000000 ) ) ;
#21 = DIRECTION ( 'NONE',  ( -2.468850131082257455E-15, 0.7071067811865497932, -0.7071067811865453523 ) ) ;
#22 = CC_DESIGN_PERSON_AND_ORGANIZATION_ASSIGNMENT ( #261, #234, ( #178 ) ) ;
#23 = DATE_AND_TIME ( #128, #120 ) ;
#24 = AXIS2_PLACEMENT_3D ( 'NONE', #300, #297, #191 ) ;
#25 = CONICAL_SURFACE ( 'NONE', #80, 3.350000000000000089, 0.7853981633974512766 ) ;
#26 = VECTOR ( 'NONE', #72, 1000.000000000000000 ) ;
#27 = PERSON_AND_ORGANIZATION_ROLE ( 'design_owner' ) ;
#28 = EDGE_LOOP ( 'NONE', ( #9, #109, #212, #83 ) ) ;
#29 = EDGE_CURVE ( 'NONE', #131, #223, #14, .T. ) ;
#30 = VERTEX_POINT ( 'NONE', #322 ) ;
#31 = PRODUCT ( '53479', '53479', '', ( #157 ) ) ;
#32 = CIRCLE ( 'NONE', #193, 3.350000000000000089 ) ;
#33 = PERSON_AND_ORGANIZATION ( #63, #271 ) ;
#34 = ORIENTED_EDGE ( 'NONE', *, *, #105, .F. ) ;
#35 = CARTESIAN_POINT ( 'NONE',  ( 2.758270257686075477E-13, -9.674709713264090904E-15, 79.00000000000000000 ) ) ;
#36 = SHAPE_DEFINITION_REPRESENTATION ( #187, #276 ) ;
#37 = CARTESIAN_POINT ( 'NONE',  ( 8.706258600108985718E-15, -3.053744440377092165E-16, 2.493571568964396690 ) ) ;
#38 = CARTESIAN_POINT ( 'NONE',  ( 5.082284216461488532E-16, -4.149999999999992362, -5.082284216461523045E-16 ) ) ;
#39 = FACE_OUTER_BOUND ( 'NONE', #209, .T. ) ;
#40 = CC_DESIGN_PERSON_AND_ORGANIZATION_ASSIGNMENT ( #147, #53, ( #183 ) ) ;
#41 = DATE_AND_TIME ( #222, #308 ) ;
#42 = DIRECTION ( 'NONE',  ( 0.0000000000000000000, 1.000000000000000000, 0.0000000000000000000 ) ) ;
#43 = DIRECTION ( 'NONE',  ( 4.275831445896957731E-31, 1.000000000000000000, 1.224646799147352961E-16 ) ) ;
#44 = CC_DESIGN_SECURITY_CLASSIFICATION ( #204, ( #178 ) ) ;
#45 = CARTESIAN_POINT ( 'NONE',  ( 2.758270257686075477E-13, 2.512097635958597535E-32, 79.00000000000000000 ) ) ;
#46 = FACE_OUTER_BOUND ( 'NONE', #79, .T. ) ;
#47 = CARTESIAN_POINT ( 'NONE',  ( 9.426999614876460059E-14, 4.149999999999990585, 27.00000000000000000 ) ) ;
#48 = CIRCLE ( 'NONE', #318, 3.350000000000000089 ) ;
#49 = CARTESIAN_POINT ( 'NONE',  ( 9.214487021755137529E-15, 4.149999999999990585, 2.493571568964397134 ) ) ;
#50 = ADVANCED_FACE ( 'NONE', ( #167 ), #150, .T. ) ;
#51 =( NAMED_UNIT ( * ) PLANE_ANGLE_UNIT ( ) SI_UNIT ( $, .RADIAN. ) );
#52 = PERSON_AND_ORGANIZATION ( #63, #271 ) ;
#53 = PERSON_AND_ORGANIZATION_ROLE ( 'creator' ) ;
#54 = ORIENTED_EDGE ( 'NONE', *, *, #315, .F. ) ;
#55 = ORIENTED_EDGE ( 'NONE', *, *, #246, .T. ) ;
#56 = DIRECTION ( 'NONE',  ( -3.491481338843133355E-15, 1.224646799147353207E-16, -1.000000000000000000 ) ) ;
#57 = ORIENTED_EDGE ( 'NONE', *, *, #29, .T. ) ;
#58 = CLOSED_SHELL ( 'NONE', ( #88, #12, #319, #291, #324 ) ) ;
#59 = AXIS2_PLACEMENT_3D ( 'NONE', #268, #243, #87 ) ;
#60 = DIRECTION ( 'NONE',  ( -3.491481338843133355E-15, 1.224646799147353207E-16, -1.000000000000000000 ) ) ;
#61 = COORDINATED_UNIVERSAL_TIME_OFFSET ( 1, 0, .AHEAD. ) ;
#62 = DIRECTION ( 'NONE',  ( -3.491481338843133355E-15, 1.224646799147353207E-16, -1.000000000000000000 ) ) ;
#63 = PERSON ( 'UNSPECIFIED', 'UNSPECIFIED', 'UNSPECIFIED', ('UNSPECIFIED'), ('UNSPECIFIED'), ('UNSPECIFIED') ) ;
#64 = CALENDAR_DATE ( 2021, 3, 9 ) ;
#65 = CIRCLE ( 'NONE', #159, 4.149999999999994138 ) ;
#66 = EDGE_LOOP ( 'NONE', ( #78, #294 ) ) ;
#67 = DIRECTION ( 'NONE',  ( -3.491481338843133355E-15, 1.224646799147353207E-16, -1.000000000000000000 ) ) ;
#68 = CARTESIAN_POINT ( 'NONE',  ( 9.426999614876460059E-14, -3.306546357697853733E-15, 27.00000000000000000 ) ) ;
#69 = CYLINDRICAL_SURFACE ( 'NONE', #152, 4.149999999999997691 ) ;
#70 = CIRCLE ( 'NONE', #323, 4.149999999999990585 ) ;
#71 = DIRECTION ( 'NONE',  ( 0.0000000000000000000, 1.000000000000000000, 0.0000000000000000000 ) ) ;
#72 = DIRECTION ( 'NONE',  ( 1.798245827342160317E-15, -0.8571673007021098911, 0.5150380749100582634 ) ) ;
#73 = CARTESIAN_POINT ( 'NONE',  ( 1.841601468447949616E-13, -4.149999999999997691, 27.00000000000000000 ) ) ;
#74 = ADVANCED_FACE ( 'NONE', ( #135 ), #168, .F. ) ;
#75 = APPROVAL_PERSON_ORGANIZATION ( #5, #84, #76 ) ;
#76 = APPROVAL_ROLE ( '' ) ;
#77 = DIRECTION ( 'NONE',  ( -3.712636037372993282E-31, -1.000000000000000000, -1.045014142154705463E-16 ) ) ;
#78 = ORIENTED_EDGE ( 'NONE', *, *, #194, .T. ) ;
#79 = EDGE_LOOP ( 'NONE', ( #321, #114, #11 ) ) ;
#80 = AXIS2_PLACEMENT_3D ( 'NONE', #330, #256, #176 ) ;
#81 = PERSON_AND_ORGANIZATION ( #63, #271 ) ;
#82 = EDGE_LOOP ( 'NONE', ( #192, #240 ) ) ;
#83 = ORIENTED_EDGE ( 'NONE', *, *, #205, .F. ) ;
#84 = APPROVAL ( #314, 'UNSPECIFIED' ) ;
#85 = VECTOR ( 'NONE', #142, 999.9999999999998863 ) ;
#86 = LINE ( 'NONE', #190, #224 ) ;
#87 = DIRECTION ( 'NONE',  ( 0.0000000000000000000, 1.000000000000000000, 0.0000000000000000000 ) ) ;
#88 = ADVANCED_FACE ( 'NONE', ( #39 ), #6, .T. ) ;
#89 = VERTEX_POINT ( 'NONE', #107 ) ;
#90 = CARTESIAN_POINT ( 'NONE',  ( 9.426999614876460059E-14, 3.112001549023344957E-32, 27.00000000000000000 ) ) ;
#91 = ORIENTED_EDGE ( 'NONE', *, *, #162, .F. ) ;
#92 = CARTESIAN_POINT ( 'NONE',  ( 2.762372824463218637E-13, -3.350000000000009859, 79.00000000000000000 ) ) ;
#93 = DIRECTION ( 'NONE',  ( -3.491481338843133355E-15, 1.224646799147353207E-16, -1.000000000000000000 ) ) ;
#94 = AXIS2_PLACEMENT_3D ( 'NONE', #123, #230, #18 ) ;
#95 = DIRECTION ( 'NONE',  ( -3.491481338843133355E-15, 1.224646799147353207E-16, -1.000000000000000000 ) ) ;
#96 = EDGE_CURVE ( 'NONE', #89, #151, #32, .T. ) ;
#97 = FACE_OUTER_BOUND ( 'NONE', #4, .T. ) ;
#98 = FACE_OUTER_BOUND ( 'NONE', #320, .T. ) ;
#99 = CC_DESIGN_APPROVAL ( #248, ( #204 ) ) ;
#100 = APPROVAL_DATE_TIME ( #23, #2 ) ;
#101 = ORIENTED_EDGE ( 'NONE', *, *, #329, .T. ) ;
#102 = SECURITY_CLASSIFICATION_LEVEL ( 'unclassified' ) ;
#103 =( NAMED_UNIT ( * ) SI_UNIT ( $, .STERADIAN. ) SOLID_ANGLE_UNIT ( ) );
#104 = VERTEX_POINT ( 'NONE', #13 ) ;
#105 = EDGE_CURVE ( 'NONE', #185, #223, #220, .T. ) ;
#106 = ORIENTED_EDGE ( 'NONE', *, *, #29, .F. ) ;
#107 = CARTESIAN_POINT ( 'NONE',  ( 2.748896757827505701E-13, -3.350000000000009859, 79.00000000000000000 ) ) ;
#108 = VECTOR ( 'NONE', #197, 1000.000000000000000 ) ;
#109 = ORIENTED_EDGE ( 'NONE', *, *, #162, .T. ) ;
#110 = EDGE_CURVE ( 'NONE', #290, #104, #86, .T. ) ;
#111 = CARTESIAN_POINT ( 'NONE',  ( 2.758270257686075477E-13, -9.674709713264090904E-15, 79.00000000000000000 ) ) ;
#112 = ORIENTED_EDGE ( 'NONE', *, *, #310, .F. ) ;
#113 = LOCAL_TIME ( 9, 22, 44.00000000000000000, #184 ) ;
#114 = ORIENTED_EDGE ( 'NONE', *, *, #251, .T. ) ;
#115 = APPLICATION_CONTEXT ( 'configuration controlled 3d designs of mechanical parts and assemblies' ) ;
#116 = EDGE_CURVE ( 'NONE', #30, #290, #213, .T. ) ;
#117 = CARTESIAN_POINT ( 'NONE',  ( 5.199635579608290079E-14, -4.149999999999997691, 27.00000000000000000 ) ) ;
#118 = LINE ( 'NONE', #16, #108 ) ;
#119 = CARTESIAN_POINT ( 'NONE',  ( 9.426999614876460059E-14, -3.306546357697853733E-15, 27.00000000000000000 ) ) ;
#120 = LOCAL_TIME ( 9, 22, 44.00000000000000000, #335 ) ;
#121 = EDGE_CURVE ( 'NONE', #30, #215, #296, .T. ) ;
#122 = DIRECTION ( 'NONE',  ( -3.491481338843133355E-15, 1.224646799147353207E-16, -1.000000000000000000 ) ) ;
#123 = CARTESIAN_POINT ( 'NONE',  ( 9.426999614876460059E-14, -3.306546357697853733E-15, 27.00000000000000000 ) ) ;
#124 = COORDINATED_UNIVERSAL_TIME_OFFSET ( 1, 0, .AHEAD. ) ;
#125 = AXIS2_PLACEMENT_3D ( 'NONE', #154, #180, #236 ) ;
#126 = CALENDAR_DATE ( 2021, 3, 9 ) ;
#127 = VERTEX_POINT ( 'NONE', #245 ) ;
#128 = CALENDAR_DATE ( 2021, 3, 9 ) ;
#129 = CC_DESIGN_DATE_AND_TIME_ASSIGNMENT ( #260, #149, ( #183 ) ) ;
#130 = COORDINATED_UNIVERSAL_TIME_OFFSET ( 1, 0, .AHEAD. ) ;
#131 = VERTEX_POINT ( 'NONE', #10 ) ;
#132 = APPLICATION_CONTEXT ( 'configuration controlled 3d designs of mechanical parts and assemblies' ) ;
#133 = ORIENTED_EDGE ( 'NONE', *, *, #121, .F. ) ;
#134 = EDGE_CURVE ( 'NONE', #151, #89, #48, .T. ) ;
#135 = FACE_OUTER_BOUND ( 'NONE', #66, .T. ) ;
#136 = EDGE_LOOP ( 'NONE', ( #91, #238, #264, #164 ) ) ;
#137 = ORIENTED_EDGE ( 'NONE', *, *, #266, .F. ) ;
#138 = DIRECTION ( 'NONE',  ( -3.491481338843133355E-15, 1.224646799147353207E-16, -1.000000000000000000 ) ) ;
#139 = ADVANCED_FACE ( 'NONE', ( #173 ), #25, .T. ) ;
#140 = AXIS2_PLACEMENT_3D ( 'NONE', #200, #177, #43 ) ;
#141 = DIRECTION ( 'NONE',  ( 3.712636037372993282E-31, 1.000000000000000000, 1.045014142154705463E-16 ) ) ;
#142 = DIRECTION ( 'NONE',  ( 1.903218546456022717E-15, 0.8571673007021097801, 0.5150380749100585964 ) ) ;
#143 = CARTESIAN_POINT ( 'NONE',  ( 8.706258600108985718E-15, -3.053744440377092165E-16, 2.493571568964396690 ) ) ;
#144 = CARTESIAN_POINT ( 'NONE',  ( 2.730338406975330915E-13, 4.149999999999990585, 78.20000000000000284 ) ) ;
#145 = AXIS2_PLACEMENT_3D ( 'NONE', #309, #214, #289 ) ;
#146 = DIRECTION ( 'NONE',  ( 4.275831445896958607E-31, 1.000000000000000000, 1.224646799147353207E-16 ) ) ;
#147 = PERSON_AND_ORGANIZATION ( #63, #271 ) ;
#148 = CC_DESIGN_DATE_AND_TIME_ASSIGNMENT ( #219, #186, ( #204 ) ) ;
#149 = DATE_TIME_ROLE ( 'creation_date' ) ;
#150 = CONICAL_SURFACE ( 'NONE', #231, 3.350000000000000089, 0.7853981633974512766 ) ;
#151 = VERTEX_POINT ( 'NONE', #281 ) ;
#152 = AXIS2_PLACEMENT_3D ( 'NONE', #226, #257, #254 ) ;
#153 = APPROVAL_STATUS ( 'not_yet_approved' ) ;
#154 = CARTESIAN_POINT ( 'NONE',  ( 9.426999614876460059E-14, 3.112001549023344957E-32, 27.00000000000000000 ) ) ;
#155 = ORIENTED_EDGE ( 'NONE', *, *, #269, .F. ) ;
#156 = CC_DESIGN_PERSON_AND_ORGANIZATION_ASSIGNMENT ( #52, #27, ( #31 ) ) ;
#157 = MECHANICAL_CONTEXT ( 'NONE', #115, 'mechanical' ) ;
#158 = ORIENTED_EDGE ( 'NONE', *, *, #110, .F. ) ;
#159 = AXIS2_PLACEMENT_3D ( 'NONE', #252, #304, #71 ) ;
#160 = APPROVAL_STATUS ( 'not_yet_approved' ) ;
#161 = ORIENTED_EDGE ( 'NONE', *, *, #251, .F. ) ;
#162 = EDGE_CURVE ( 'NONE', #89, #30, #201, .T. ) ;
#163 = DIRECTION ( 'NONE',  ( -3.491481338843133355E-15, 1.224646799147353207E-16, -1.000000000000000000 ) ) ;
#164 = ORIENTED_EDGE ( 'NONE', *, *, #116, .F. ) ;
#165 = MANIFOLD_SOLID_BREP ( 'Corps-Déplacer/Copier1[2]', #58 ) ;
#166 = PERSON_AND_ORGANIZATION ( #63, #271 ) ;
#167 = FACE_OUTER_BOUND ( 'NONE', #28, .T. ) ;
#168 = PLANE ( 'NONE',  #292 ) ;
#169 = MANIFOLD_SOLID_BREP ( 'Corps-Déplacer/Copier1[1]', #307 ) ;
#170 = FACE_OUTER_BOUND ( 'NONE', #82, .T. ) ;
#171 = DESIGN_CONTEXT ( 'detailed design', #132, 'design' ) ;
#172 = AXIS2_PLACEMENT_3D ( 'NONE', #287, #56, #337 ) ;
#173 = FACE_OUTER_BOUND ( 'NONE', #136, .T. ) ;
#174 = EDGE_CURVE ( 'NONE', #288, #131, #118, .T. ) ;
#175 = DIRECTION ( 'NONE',  ( -3.491481338843133355E-15, 1.224646799147353207E-16, -1.000000000000000000 ) ) ;
#176 = DIRECTION ( 'NONE',  ( 0.0000000000000000000, 1.000000000000000000, 0.0000000000000000000 ) ) ;
#177 = DIRECTION ( 'NONE',  ( -3.491481338843133355E-15, 1.224646799147353207E-16, -1.000000000000000000 ) ) ;
#178 = PRODUCT_DEFINITION_FORMATION_WITH_SPECIFIED_SOURCE ( 'ANY', '', #31, .NOT_KNOWN. ) ;
#179 = FACE_OUTER_BOUND ( 'NONE', #181, .T. ) ;
#180 = DIRECTION ( 'NONE',  ( 3.491481338843133355E-15, -1.224646799147353207E-16, 1.000000000000000000 ) ) ;
#181 = EDGE_LOOP ( 'NONE', ( #112, #54 ) ) ;
#182 = CONICAL_SURFACE ( 'NONE', #19, 4.149999999999990585, 1.029744258676649649 ) ;
#183 = PRODUCT_DEFINITION ( 'UNKNOWN', '', #178, #171 ) ;
#184 = COORDINATED_UNIVERSAL_TIME_OFFSET ( 1, 0, .AHEAD. ) ;
#185 = VERTEX_POINT ( 'NONE', #117 ) ;
#186 = DATE_TIME_ROLE ( 'classification_date' ) ;
#187 = PRODUCT_DEFINITION_SHAPE ( 'NONE', 'NONE',  #183 ) ;
#188 = EDGE_LOOP ( 'NONE', ( #161, #55, #57 ) ) ;
#189 = CIRCLE ( 'NONE', #94, 4.149999999999994138 ) ;
#190 = CARTESIAN_POINT ( 'NONE',  ( 1.774470050047236534E-30, 4.149999999999997691, 5.082284216461512198E-16 ) ) ;
#191 = DIRECTION ( 'NONE',  ( 3.712636037372993282E-31, 1.000000000000000000, 1.045014142154705463E-16 ) ) ;
#192 = ORIENTED_EDGE ( 'NONE', *, *, #134, .F. ) ;
#193 = AXIS2_PLACEMENT_3D ( 'NONE', #35, #299, #317 ) ;
#194 = EDGE_CURVE ( 'NONE', #104, #215, #255, .T. ) ;
#195 = DIRECTION ( 'NONE',  ( 3.491481338843133355E-15, -1.224646799147353207E-16, 1.000000000000000000 ) ) ;
#196 = CARTESIAN_POINT ( 'NONE',  ( 0.0000000000000000000, 0.0000000000000000000, 0.0000000000000000000 ) ) ;
#197 = DIRECTION ( 'NONE',  ( -3.491481338843133355E-15, 1.224646799147353207E-16, -1.000000000000000000 ) ) ;
#198 = ADVANCED_FACE ( 'NONE', ( #305 ), #69, .T. ) ;
#199 = CIRCLE ( 'NONE', #285, 4.149999999999994138 ) ;
#200 = CARTESIAN_POINT ( 'NONE',  ( 0.0000000000000000000, 0.0000000000000000000, 0.0000000000000000000 ) ) ;
#201 = LINE ( 'NONE', #92, #259 ) ;
#202 = DIRECTION ( 'NONE',  ( -3.491481338843133355E-15, 1.224646799147353207E-16, -1.000000000000000000 ) ) ;
#203 = DIRECTION ( 'NONE',  ( 4.275831445896958607E-31, 1.000000000000000000, 1.224646799147353207E-16 ) ) ;
#204 = SECURITY_CLASSIFICATION ( '', '', #102 ) ;
#205 = EDGE_CURVE ( 'NONE', #151, #290, #327, .T. ) ;
#206 = DATE_AND_TIME ( #262, #15 ) ;
#207 = ORIENTED_EDGE ( 'NONE', *, *, #174, .T. ) ;
#208 = PERSON_AND_ORGANIZATION ( #63, #271 ) ;
#209 = EDGE_LOOP ( 'NONE', ( #216, #1, #106, #233 ) ) ;
#210 = ADVANCED_FACE ( 'NONE', ( #170 ), #331, .F. ) ;
#211 = APPLICATION_PROTOCOL_DEFINITION ( 'international standard', 'config_control_design', 1994, #115 ) ;
#212 = ORIENTED_EDGE ( 'NONE', *, *, #329, .F. ) ;
#213 = CIRCLE ( 'NONE', #59, 4.150000000000000355 ) ;
#214 = DIRECTION ( 'NONE',  ( 0.0000000000000000000, 0.0000000000000000000, 1.000000000000000000 ) ) ;
#215 = VERTEX_POINT ( 'NONE', #73 ) ;
#216 = ORIENTED_EDGE ( 'NONE', *, *, #310, .T. ) ;
#217 = AXIS2_PLACEMENT_3D ( 'NONE', #45, #122, #146 ) ;
#218 = VECTOR ( 'NONE', #62, 1000.000000000000000 ) ;
#219 = DATE_AND_TIME ( #64, #113 ) ;
#220 = LINE ( 'NONE', #38, #293 ) ;
#221 = DIRECTION ( 'NONE',  ( -3.491481338843133355E-15, 1.224646799147353207E-16, -1.000000000000000000 ) ) ;
#222 = CALENDAR_DATE ( 2021, 3, 9 ) ;
#223 = VERTEX_POINT ( 'NONE', #326 ) ;
#224 = VECTOR ( 'NONE', #163, 1000.000000000000000 ) ;
#225 = EDGE_LOOP ( 'NONE', ( #133, #336, #286, #155 ) ) ;
#226 = CARTESIAN_POINT ( 'NONE',  ( 0.0000000000000000000, 0.0000000000000000000, 0.0000000000000000000 ) ) ;
#227 = LINE ( 'NONE', #49, #85 ) ;
#228 = DIRECTION ( 'NONE',  ( 3.491481338843133355E-15, -1.224646799147353207E-16, 1.000000000000000000 ) ) ;
#229 = CYLINDRICAL_SURFACE ( 'NONE', #244, 4.149999999999992362 ) ;
#230 = DIRECTION ( 'NONE',  ( -3.491481338843133355E-15, 1.224646799147353207E-16, -1.000000000000000000 ) ) ;
#231 = AXIS2_PLACEMENT_3D ( 'NONE', #325, #67, #42 ) ;
#232 =( GEOMETRIC_REPRESENTATION_CONTEXT ( 3 ) GLOBAL_UNCERTAINTY_ASSIGNED_CONTEXT ( ( #333 ) ) GLOBAL_UNIT_ASSIGNED_CONTEXT ( ( #258, #51, #103 ) ) REPRESENTATION_CONTEXT ( 'NONE', 'WORKASPACE' ) );
#233 = ORIENTED_EDGE ( 'NONE', *, *, #174, .F. ) ;
#234 = PERSON_AND_ORGANIZATION_ROLE ( 'creator' ) ;
#235 = PERSON_AND_ORGANIZATION_ROLE ( 'design_supplier' ) ;
#236 = DIRECTION ( 'NONE',  ( -4.275831445896958607E-31, -1.000000000000000000, -1.224646799147353207E-16 ) ) ;
#237 = CONICAL_SURFACE ( 'NONE', #7, 4.149999999999990585, 1.029744258676649649 ) ;
#238 = ORIENTED_EDGE ( 'NONE', *, *, #96, .T. ) ;
#239 = LOCAL_TIME ( 9, 22, 44.00000000000000000, #130 ) ;
#240 = ORIENTED_EDGE ( 'NONE', *, *, #96, .F. ) ;
#241 = CC_DESIGN_PERSON_AND_ORGANIZATION_ASSIGNMENT ( #208, #312, ( #204 ) ) ;
#242 = DIRECTION ( 'NONE',  ( 3.491481338843133355E-15, -1.224646799147353207E-16, 1.000000000000000000 ) ) ;
#243 = DIRECTION ( 'NONE',  ( -3.491481338843133355E-15, 1.224646799147353207E-16, -1.000000000000000000 ) ) ;
#244 = AXIS2_PLACEMENT_3D ( 'NONE', #277, #202, #203 ) ;
#245 = CARTESIAN_POINT ( 'NONE',  ( 0.0000000000000000000, 0.0000000000000000000, 0.0000000000000000000 ) ) ;
#246 = EDGE_CURVE ( 'NONE', #127, #131, #227, .T. ) ;
#247 = ORIENTED_EDGE ( 'NONE', *, *, #121, .T. ) ;
#248 = APPROVAL ( #160, 'UNSPECIFIED' ) ;
#249 = DIRECTION ( 'NONE',  ( 4.275831445896958607E-31, 1.000000000000000000, 1.224646799147353207E-16 ) ) ;
#250 = APPROVAL_PERSON_ORGANIZATION ( #166, #248, #274 ) ;
#251 = EDGE_CURVE ( 'NONE', #127, #223, #253, .T. ) ;
#252 = CARTESIAN_POINT ( 'NONE',  ( 9.426999614876460059E-14, -3.306546357697853733E-15, 27.00000000000000000 ) ) ;
#253 = LINE ( 'NONE', #17, #26 ) ;
#254 = DIRECTION ( 'NONE',  ( 4.275831445896957731E-31, 1.000000000000000000, 1.224646799147352961E-16 ) ) ;
#255 = CIRCLE ( 'NONE', #303, 4.149999999999994138 ) ;
#256 = DIRECTION ( 'NONE',  ( -3.491481338843133355E-15, 1.224646799147353207E-16, -1.000000000000000000 ) ) ;
#257 = DIRECTION ( 'NONE',  ( -3.491481338843133355E-15, 1.224646799147353207E-16, -1.000000000000000000 ) ) ;
#258 =( LENGTH_UNIT ( ) NAMED_UNIT ( * ) SI_UNIT ( .MILLI., .METRE. ) );
#259 = VECTOR ( 'NONE', #332, 1000.000000000000114 ) ;
#260 = DATE_AND_TIME ( #126, #239 ) ;
#261 = PERSON_AND_ORGANIZATION ( #63, #271 ) ;
#262 = CALENDAR_DATE ( 2021, 3, 9 ) ;
#263 = APPLICATION_PROTOCOL_DEFINITION ( 'international standard', 'config_control_design', 1994, #132 ) ;
#264 = ORIENTED_EDGE ( 'NONE', *, *, #205, .T. ) ;
#265 = CC_DESIGN_APPROVAL ( #84, ( #178 ) ) ;
#266 = EDGE_CURVE ( 'NONE', #223, #131, #70, .T. ) ;
#267 = DIRECTION ( 'NONE',  ( -3.712636037372993282E-31, -1.000000000000000000, -1.045014142154705463E-16 ) ) ;
#268 = CARTESIAN_POINT ( 'NONE',  ( 2.730338406975330915E-13, -9.576737969332302470E-15, 78.20000000000000284 ) ) ;
#269 = EDGE_CURVE ( 'NONE', #215, #104, #189, .T. ) ;
#270 = CARTESIAN_POINT ( 'NONE',  ( 5.082284216461495435E-16, -4.149999999999997691, -5.082284216461529948E-16 ) ) ;
#271 = ORGANIZATION ( 'UNSPECIFIED', 'UNSPECIFIED', '' ) ;
#272 = APPROVAL_DATE_TIME ( #41, #248 ) ;
#273 = DIRECTION ( 'NONE',  ( -4.275831445896958607E-31, -1.000000000000000000, -1.224646799147353207E-16 ) ) ;
#274 = APPROVAL_ROLE ( '' ) ;
#275 = FACE_OUTER_BOUND ( 'NONE', #188, .T. ) ;
#276 = ADVANCED_BREP_SHAPE_REPRESENTATION ( '53479', ( #169, #165, #145 ), #232 ) ;
#277 = CARTESIAN_POINT ( 'NONE',  ( 0.0000000000000000000, 0.0000000000000000000, 0.0000000000000000000 ) ) ;
#278 = CARTESIAN_POINT ( 'NONE',  ( 2.758270257686075477E-13, 3.349999999999990763, 79.00000000000000000 ) ) ;
#279 = DIRECTION ( 'NONE',  ( 0.0000000000000000000, 1.000000000000000000, 0.0000000000000000000 ) ) ;
#280 = CARTESIAN_POINT ( 'NONE',  ( 8.706258600108985718E-15, -3.053744440377092165E-16, 2.493571568964396690 ) ) ;
#281 = CARTESIAN_POINT ( 'NONE',  ( 2.758270257686075477E-13, 3.349999999999990763, 79.00000000000000000 ) ) ;
#282 = PRODUCT_RELATED_PRODUCT_CATEGORY ( 'detail', '', ( #31 ) ) ;
#283 = APPROVAL_ROLE ( '' ) ;
#284 = ORIENTED_EDGE ( 'NONE', *, *, #194, .F. ) ;
#285 = AXIS2_PLACEMENT_3D ( 'NONE', #119, #175, #279 ) ;
#286 = ORIENTED_EDGE ( 'NONE', *, *, #110, .T. ) ;
#287 = CARTESIAN_POINT ( 'NONE',  ( 2.730338406975330915E-13, -9.576737969332302470E-15, 78.20000000000000284 ) ) ;
#288 = VERTEX_POINT ( 'NONE', #47 ) ;
#289 = DIRECTION ( 'NONE',  ( 1.000000000000000000, 0.0000000000000000000, 0.0000000000000000000 ) ) ;
#290 = VERTEX_POINT ( 'NONE', #144 ) ;
#291 = ADVANCED_FACE ( 'NONE', ( #98 ), #229, .T. ) ;
#292 = AXIS2_PLACEMENT_3D ( 'NONE', #90, #195, #273 ) ;
#293 = VECTOR ( 'NONE', #60, 1000.000000000000000 ) ;
#294 = ORIENTED_EDGE ( 'NONE', *, *, #269, .T. ) ;
#295 = ADVANCED_FACE ( 'NONE', ( #97 ), #306, .T. ) ;
#296 = LINE ( 'NONE', #270, #218 ) ;
#297 = DIRECTION ( 'NONE',  ( -3.491481338843133355E-15, 1.224646799147353207E-16, -1.000000000000000000 ) ) ;
#298 = CC_DESIGN_APPROVAL ( #2, ( #183 ) ) ;
#299 = DIRECTION ( 'NONE',  ( -3.491481338843133355E-15, 1.224646799147353207E-16, -1.000000000000000000 ) ) ;
#300 = CARTESIAN_POINT ( 'NONE',  ( 8.706258600108985718E-15, -3.053744440377092165E-16, 2.493571568964396690 ) ) ;
#301 = CC_DESIGN_PERSON_AND_ORGANIZATION_ASSIGNMENT ( #81, #235, ( #178 ) ) ;
#302 = DIRECTION ( 'NONE',  ( 0.0000000000000000000, 1.000000000000000000, 0.0000000000000000000 ) ) ;
#303 = AXIS2_PLACEMENT_3D ( 'NONE', #68, #95, #20 ) ;
#304 = DIRECTION ( 'NONE',  ( -3.491481338843133355E-15, 1.224646799147353207E-16, -1.000000000000000000 ) ) ;
#305 = FACE_OUTER_BOUND ( 'NONE', #225, .T. ) ;
#306 = CYLINDRICAL_SURFACE ( 'NONE', #140, 4.149999999999997691 ) ;
#307 = CLOSED_SHELL ( 'NONE', ( #50, #295, #74, #198, #139, #210 ) ) ;
#308 = LOCAL_TIME ( 9, 22, 44.00000000000000000, #61 ) ;
#309 = CARTESIAN_POINT ( 'NONE',  ( 0.0000000000000000000, 0.0000000000000000000, 0.0000000000000000000 ) ) ;
#310 = EDGE_CURVE ( 'NONE', #288, #185, #65, .T. ) ;
#311 = APPROVAL_DATE_TIME ( #206, #84 ) ;
#312 = PERSON_AND_ORGANIZATION_ROLE ( 'classification_officer' ) ;
#313 = ORIENTED_EDGE ( 'NONE', *, *, #315, .T. ) ;
#314 = APPROVAL_STATUS ( 'not_yet_approved' ) ;
#315 = EDGE_CURVE ( 'NONE', #185, #288, #199, .T. ) ;
#316 = PLANE ( 'NONE',  #125 ) ;
#317 = DIRECTION ( 'NONE',  ( 0.0000000000000000000, 1.000000000000000000, 0.0000000000000000000 ) ) ;
#318 = AXIS2_PLACEMENT_3D ( 'NONE', #111, #221, #302 ) ;
#319 = ADVANCED_FACE ( 'NONE', ( #46 ), #182, .T. ) ;
#320 = EDGE_LOOP ( 'NONE', ( #34, #313, #207, #137 ) ) ;
#321 = ORIENTED_EDGE ( 'NONE', *, *, #246, .F. ) ;
#322 = CARTESIAN_POINT ( 'NONE',  ( 1.841601468447948858E-13, -4.150000000000009237, 78.20000000000000284 ) ) ;
#323 = AXIS2_PLACEMENT_3D ( 'NONE', #280, #93, #141 ) ;
#324 = ADVANCED_FACE ( 'NONE', ( #179 ), #316, .T. ) ;
#325 = CARTESIAN_POINT ( 'NONE',  ( 2.758270257686075477E-13, -9.674709713264090904E-15, 79.00000000000000000 ) ) ;
#326 = CARTESIAN_POINT ( 'NONE',  ( 8.706258600108984140E-15, -4.149999999999990585, 2.493571568964396246 ) ) ;
#327 = LINE ( 'NONE', #278, #8 ) ;
#328 = CIRCLE ( 'NONE', #172, 4.150000000000000355 ) ;
#329 = EDGE_CURVE ( 'NONE', #290, #30, #328, .T. ) ;
#330 = CARTESIAN_POINT ( 'NONE',  ( 2.758270257686075477E-13, -9.674709713264090904E-15, 79.00000000000000000 ) ) ;
#331 = PLANE ( 'NONE',  #217 ) ;
#332 = DIRECTION ( 'NONE',  ( -2.382254525458708792E-15, -0.7071067811865495711, -0.7071067811865455743 ) ) ;
#333 = UNCERTAINTY_MEASURE_WITH_UNIT (LENGTH_MEASURE( 1.000000000000000082E-05 ), #258, 'distance_accuracy_value', 'NONE');
#334 = APPROVAL_PERSON_ORGANIZATION ( #33, #2, #283 ) ;
#335 = COORDINATED_UNIVERSAL_TIME_OFFSET ( 1, 0, .AHEAD. ) ;
#336 = ORIENTED_EDGE ( 'NONE', *, *, #116, .T. ) ;
#337 = DIRECTION ( 'NONE',  ( 0.0000000000000000000, 1.000000000000000000, 0.0000000000000000000 ) ) ;
ENDSEC;
END-ISO-10303-21;
