ISO-10303-21;
HEADER;
FILE_DESCRIPTION (( 'STEP AP203' ),
    '1' );
FILE_NAME ('53205.step',
    '2021-12-03T14:55:51',
    ( '' ),
    ( '' ),
    'SwSTEP 2.0',
    'SolidWorks 2019',
    '' );
FILE_SCHEMA (( 'CONFIG_CONTROL_DESIGN' ));
ENDSEC;

DATA;
#1 = CALENDAR_DATE ( 2021, 3, 12 ) ;
#2 = DIRECTION ( 'NONE',  ( 4.275831445896958607E-31, 1.000000000000000000, 1.224646799147353207E-16 ) ) ;
#3 = FACE_OUTER_BOUND ( 'NONE', #30, .T. ) ;
#4 = LOCAL_TIME ( 15, 55, 51.00000000000000000, #13 ) ;
#5 = ADVANCED_FACE ( 'NONE', ( #84, #137 ), #192, .T. ) ;
#6 = CIRCLE ( 'NONE', #168, 1.500000000000000000 ) ;
#7 = EDGE_LOOP ( 'NONE', ( #114 ) ) ;
#8 = DIRECTION ( 'NONE',  ( 0.0000000000000000000, 1.000000000000000000, 0.0000000000000000000 ) ) ;
#9 = ORIENTED_EDGE ( 'NONE', *, *, #261, .T. ) ;
#10 = AXIS2_PLACEMENT_3D ( 'NONE', #231, #21, #23 ) ;
#11 = AXIS2_PLACEMENT_3D ( 'NONE', #132, #104, #46 ) ;
#12 = DIRECTION ( 'NONE',  ( -3.491481338843133355E-15, 1.224646799147353207E-16, -1.000000000000000000 ) ) ;
#13 = COORDINATED_UNIVERSAL_TIME_OFFSET ( 1, 0, .AHEAD. ) ;
#14 = DIRECTION ( 'NONE',  ( -4.275831445896958607E-31, -1.000000000000000000, -1.224646799147353207E-16 ) ) ;
#15 = PLANE ( 'NONE',  #29 ) ;
#16 = AXIS2_PLACEMENT_3D ( 'NONE', #145, #33, #72 ) ;
#17 = PERSON_AND_ORGANIZATION ( #74, #236 ) ;
#18 = CARTESIAN_POINT ( 'NONE',  ( 5.707060355903097771E-14, -2.001767307086126371E-15, 16.34567051071243426 ) ) ;
#19 = DIRECTION ( 'NONE',  ( 0.0000000000000000000, 1.000000000000000000, 0.0000000000000000000 ) ) ;
#20 = COORDINATED_UNIVERSAL_TIME_OFFSET ( 1, 0, .AHEAD. ) ;
#21 = DIRECTION ( 'NONE',  ( -3.491481338843133355E-15, 1.224646799147353207E-16, -1.000000000000000000 ) ) ;
#22 = ADVANCED_FACE ( 'NONE', ( #86, #211 ), #227, .T. ) ;
#23 = DIRECTION ( 'NONE',  ( 0.0000000000000000000, 1.000000000000000000, 0.0000000000000000000 ) ) ;
#24 = ADVANCED_FACE ( 'NONE', ( #107, #159 ), #212, .T. ) ;
#25 = CARTESIAN_POINT ( 'NONE',  ( 5.411796075206856070E-14, -1.898202538678397163E-15, 15.49999999999999822 ) ) ;
#26 = ORIENTED_EDGE ( 'NONE', *, *, #271, .T. ) ;
#27 = EDGE_LOOP ( 'NONE', ( #287 ) ) ;
#28 = ADVANCED_FACE ( 'NONE', ( #105 ), #103, .F. ) ;
#29 = AXIS2_PLACEMENT_3D ( 'NONE', #98, #199, #67 ) ;
#30 = EDGE_LOOP ( 'NONE', ( #143 ) ) ;
#31 = CARTESIAN_POINT ( 'NONE',  ( 1.222018468595096201E-14, -1.377777306778880773, 3.499999999999998668 ) ) ;
#32 = EDGE_LOOP ( 'NONE', ( #240 ) ) ;
#33 = DIRECTION ( 'NONE',  ( -3.491481338843133355E-15, 1.224646799147353207E-16, -1.000000000000000000 ) ) ;
#34 = DATE_TIME_ROLE ( 'classification_date' ) ;
#35 = DATE_TIME_ROLE ( 'creation_date' ) ;
#36 = LINE ( 'NONE', #69, #187 ) ;
#37 = VERTEX_POINT ( 'NONE', #277 ) ;
#38 = DIRECTION ( 'NONE',  ( -4.275831445896958607E-31, -1.000000000000000000, -1.224646799147353207E-16 ) ) ;
#39 = CC_DESIGN_SECURITY_CLASSIFICATION ( #208, ( #180 ) ) ;
#40 = VERTEX_POINT ( 'NONE', #177 ) ;
#41 = CALENDAR_DATE ( 2021, 3, 12 ) ;
#42 = AXIS2_PLACEMENT_3D ( 'NONE', #97, #12, #121 ) ;
#43 = VERTEX_POINT ( 'NONE', #251 ) ;
#44 = CIRCLE ( 'NONE', #16, 1.599999999999998312 ) ;
#45 = DIRECTION ( 'NONE',  ( -3.491481338843133355E-15, 1.224646799147353207E-16, -1.000000000000000000 ) ) ;
#46 = DIRECTION ( 'NONE',  ( 1.000000000000000000, 0.0000000000000000000, 0.0000000000000000000 ) ) ;
#47 = ORIENTED_EDGE ( 'NONE', *, *, #191, .T. ) ;
#48 = CC_DESIGN_APPROVAL ( #268, ( #208 ) ) ;
#49 = EDGE_LOOP ( 'NONE', ( #26 ) ) ;
#50 = DIRECTION ( 'NONE',  ( 3.491481338843133355E-15, -1.224646799147353207E-16, 1.000000000000000000 ) ) ;
#51 = AXIS2_PLACEMENT_3D ( 'NONE', #182, #153, #284 ) ;
#52 = VERTEX_POINT ( 'NONE', #127 ) ;
#53 = CARTESIAN_POINT ( 'NONE',  ( 1.222018468595096674E-14, -4.286263797015736595E-16, 3.500000000000000000 ) ) ;
#54 = VECTOR ( 'NONE', #172, 1000.000000000000000 ) ;
#55 = DIRECTION ( 'NONE',  ( 3.491481338843133355E-15, -1.224646799147353207E-16, 1.000000000000000000 ) ) ;
#56 = PRODUCT_DEFINITION ( 'UNKNOWN', '', #180, #213 ) ;
#57 = CARTESIAN_POINT ( 'NONE',  ( 1.222018468595096674E-14, 1.377777306778879884, 3.500000000000000000 ) ) ;
#58 = AXIS2_PLACEMENT_3D ( 'NONE', #205, #130, #181 ) ;
#59 = SECURITY_CLASSIFICATION_LEVEL ( 'unclassified' ) ;
#60 = ADVANCED_FACE ( 'NONE', ( #3, #206 ), #89, .F. ) ;
#61 = DIRECTION ( 'NONE',  ( 4.275831445896958607E-31, 1.000000000000000000, 1.224646799147353207E-16 ) ) ;
#62 = CARTESIAN_POINT ( 'NONE',  ( -6.413747168845438786E-31, 2.249639673992786412E-32, -1.836970198721029934E-16 ) ) ;
#63 = AXIS2_PLACEMENT_3D ( 'NONE', #53, #116, #218 ) ;
#64 = ORIENTED_EDGE ( 'NONE', *, *, #261, .F. ) ;
#65 = EDGE_LOOP ( 'NONE', ( #292 ) ) ;
#66 = CLOSED_SHELL ( 'NONE', ( #28, #24, #60, #22, #203, #5, #216 ) ) ;
#67 = DIRECTION ( 'NONE',  ( 4.275831445896958607E-31, 1.000000000000000000, 1.224646799147353207E-16 ) ) ;
#68 = ORIENTED_EDGE ( 'NONE', *, *, #271, .F. ) ;
#69 = CARTESIAN_POINT ( 'NONE',  ( 1.499744159275245630E-13, -5.260394388374205272E-15, 42.95437992437245356 ) ) ;
#70 = EDGE_CURVE ( 'NONE', #43, #43, #134, .T. ) ;
#71 = LINE ( 'NONE', #249, #300 ) ;
#72 = DIRECTION ( 'NONE',  ( 0.0000000000000000000, 1.000000000000000000, 0.0000000000000000000 ) ) ;
#73 = DIRECTION ( 'NONE',  ( -3.491481338843133355E-15, 1.224646799147353207E-16, -1.000000000000000000 ) ) ;
#74 = PERSON ( 'UNSPECIFIED', 'UNSPECIFIED', 'UNSPECIFIED', ('UNSPECIFIED'), ('UNSPECIFIED'), ('UNSPECIFIED') ) ;
#75 = VECTOR ( 'NONE', #147, 1000.000000000000227 ) ;
#76 = EDGE_CURVE ( 'NONE', #37, #37, #122, .T. ) ;
#77 = VERTEX_POINT ( 'NONE', #230 ) ;
#78 = LOCAL_TIME ( 15, 55, 51.00000000000000000, #202 ) ;
#79 = PERSON_AND_ORGANIZATION ( #74, #236 ) ;
#80 = CARTESIAN_POINT ( 'NONE',  ( 5.237222008264699402E-14, -1.734723475976807094E-15, 14.99999999999999822 ) ) ;
#81 = AXIS2_PLACEMENT_3D ( 'NONE', #25, #50, #109 ) ;
#82 = DIRECTION ( 'NONE',  ( -3.491481338843133355E-15, 1.224646799147353207E-16, -1.000000000000000000 ) ) ;
#83 = AXIS2_PLACEMENT_3D ( 'NONE', #224, #175, #295 ) ;
#84 = FACE_OUTER_BOUND ( 'NONE', #32, .T. ) ;
#85 = EDGE_CURVE ( 'NONE', #228, #228, #217, .T. ) ;
#86 = FACE_OUTER_BOUND ( 'NONE', #7, .T. ) ;
#87 = ORIENTED_EDGE ( 'NONE', *, *, #297, .T. ) ;
#88 = ORIENTED_EDGE ( 'NONE', *, *, #184, .T. ) ;
#89 = TOROIDAL_SURFACE ( 'NONE', #280, 2.377777306778880106, 0.9999999999999997780 ) ;
#90 = PRODUCT_RELATED_PRODUCT_CATEGORY ( 'detail', '', ( #155 ) ) ;
#91 = ORIENTED_EDGE ( 'NONE', *, *, #146, .T. ) ;
#92 = LOCAL_TIME ( 15, 55, 51.00000000000000000, #20 ) ;
#93 = FACE_OUTER_BOUND ( 'NONE', #110, .T. ) ;
#94 = CC_DESIGN_PERSON_AND_ORGANIZATION_ASSIGNMENT ( #197, #301, ( #180 ) ) ;
#95 = COORDINATED_UNIVERSAL_TIME_OFFSET ( 1, 0, .AHEAD. ) ;
#96 = APPLICATION_CONTEXT ( 'configuration controlled 3d designs of mechanical parts and assemblies' ) ;
#97 = CARTESIAN_POINT ( 'NONE',  ( 0.0000000000000000000, 0.0000000000000000000, 0.0000000000000000000 ) ) ;
#98 = CARTESIAN_POINT ( 'NONE',  ( -3.206873584422719393E-31, 1.124819836996393206E-32, -9.184850993605149670E-17 ) ) ;
#99 = AXIS2_PLACEMENT_3D ( 'NONE', #18, #82, #209 ) ;
#100 = PERSON_AND_ORGANIZATION_ROLE ( 'classification_officer' ) ;
#101 = CARTESIAN_POINT ( 'NONE',  ( 1.222018468595096674E-14, 1.033167497085565878E-32, 3.500000000000000000 ) ) ;
#102 = CC_DESIGN_PERSON_AND_ORGANIZATION_ASSIGNMENT ( #256, #237, ( #155 ) ) ;
#103 = PLANE ( 'NONE',  #58 ) ;
#104 = DIRECTION ( 'NONE',  ( 0.0000000000000000000, 0.0000000000000000000, 1.000000000000000000 ) ) ;
#105 = FACE_OUTER_BOUND ( 'NONE', #49, .T. ) ;
#106 = APPROVAL_PERSON_ORGANIZATION ( #275, #268, #219 ) ;
#107 = FACE_OUTER_BOUND ( 'NONE', #161, .T. ) ;
#108 = EDGE_CURVE ( 'NONE', #77, #77, #243, .T. ) ;
#109 = DIRECTION ( 'NONE',  ( 0.0000000000000000000, -1.000000000000000000, 0.0000000000000000000 ) ) ;
#110 = EDGE_LOOP ( 'NONE', ( #164, #267, #264, #140 ) ) ;
#111 = EDGE_LOOP ( 'NONE', ( #289 ) ) ;
#112 = AXIS2_PLACEMENT_3D ( 'NONE', #62, #45, #254 ) ;
#113 = CC_DESIGN_DATE_AND_TIME_ASSIGNMENT ( #151, #34, ( #208 ) ) ;
#114 = ORIENTED_EDGE ( 'NONE', *, *, #108, .T. ) ;
#115 = ADVANCED_BREP_SHAPE_REPRESENTATION ( '53205', ( #260, #149, #11 ), #220 ) ;
#116 = DIRECTION ( 'NONE',  ( -3.491481338843133355E-15, 1.224646799147353207E-16, -1.000000000000000000 ) ) ;
#117 = APPROVAL_STATUS ( 'not_yet_approved' ) ;
#118 = DIRECTION ( 'NONE',  ( -3.491481338843133355E-15, 0.0000000000000000000, -1.000000000000000000 ) ) ;
#119 =( LENGTH_UNIT ( ) NAMED_UNIT ( * ) SI_UNIT ( .MILLI., .METRE. ) );
#120 = ADVANCED_FACE ( 'NONE', ( #185 ), #270, .T. ) ;
#121 = DIRECTION ( 'NONE',  ( 4.275831445896959482E-31, 1.000000000000000000, 1.224646799147353454E-16 ) ) ;
#122 = CIRCLE ( 'NONE', #179, 1.511751902994441954 ) ;
#123 = CC_DESIGN_APPROVAL ( #150, ( #180 ) ) ;
#124 = DATE_AND_TIME ( #41, #252 ) ;
#125 = AXIS2_PLACEMENT_3D ( 'NONE', #101, #55, #38 ) ;
#126 = CARTESIAN_POINT ( 'NONE',  ( 5.237222008264700033E-14, 1.377777306778878552, 15.00000000000000000 ) ) ;
#127 = CARTESIAN_POINT ( 'NONE',  ( 0.0000000000000000000, 1.500000000000000000, 0.0000000000000000000 ) ) ;
#128 = PERSON_AND_ORGANIZATION ( #74, #236 ) ;
#129 = CALENDAR_DATE ( 2021, 3, 12 ) ;
#130 = DIRECTION ( 'NONE',  ( 3.491481338843133355E-15, -1.224646799147353207E-16, 1.000000000000000000 ) ) ;
#131 = ADVANCED_FACE ( 'NONE', ( #133 ), #234, .T. ) ;
#132 = CARTESIAN_POINT ( 'NONE',  ( 0.0000000000000000000, 0.0000000000000000000, 0.0000000000000000000 ) ) ;
#133 = FACE_OUTER_BOUND ( 'NONE', #290, .T. ) ;
#134 = CIRCLE ( 'NONE', #10, 1.999999999999998224 ) ;
#135 = MECHANICAL_CONTEXT ( 'NONE', #96, 'mechanical' ) ;
#136 = APPROVAL_PERSON_ORGANIZATION ( #144, #150, #223 ) ;
#137 = FACE_BOUND ( 'NONE', #111, .T. ) ;
#138 = EDGE_LOOP ( 'NONE', ( #64, #91, #87, #47 ) ) ;
#139 = DIRECTION ( 'NONE',  ( -3.491481338843133355E-15, 1.224646799147353207E-16, -1.000000000000000000 ) ) ;
#140 = ORIENTED_EDGE ( 'NONE', *, *, #146, .F. ) ;
#141 = AXIS2_PLACEMENT_3D ( 'NONE', #269, #293, #118 ) ;
#142 = FACE_OUTER_BOUND ( 'NONE', #194, .T. ) ;
#143 = ORIENTED_EDGE ( 'NONE', *, *, #76, .T. ) ;
#144 = PERSON_AND_ORGANIZATION ( #74, #236 ) ;
#145 = CARTESIAN_POINT ( 'NONE',  ( 1.117274028429802674E-13, -3.918869757271530263E-15, 32.00000000000000000 ) ) ;
#146 = EDGE_CURVE ( 'NONE', #262, #241, #36, .T. ) ;
#147 = DIRECTION ( 'NONE',  ( -3.489354422748178188E-15, 0.03489949670250187125, -0.9993908270190956511 ) ) ;
#148 = CARTESIAN_POINT ( 'NONE',  ( 1.222018468595096674E-14, -4.286263797015736595E-16, 3.500000000000000000 ) ) ;
#149 = MANIFOLD_SOLID_BREP ( 'Corps-Déplacer/Copier1[2]', #207 ) ;
#150 = APPROVAL ( #117, 'UNSPECIFIED' ) ;
#151 = DATE_AND_TIME ( #1, #78 ) ;
#152 = DIRECTION ( 'NONE',  ( -3.491481338843133355E-15, 1.224646799147353207E-16, -1.000000000000000000 ) ) ;
#153 = DIRECTION ( 'NONE',  ( -3.491481338843133355E-15, 1.224646799147353207E-16, -1.000000000000000000 ) ) ;
#154 = ADVANCED_FACE ( 'NONE', ( #93 ), #273, .T. ) ;
#155 = PRODUCT ( '53205', '53205', '', ( #135 ) ) ;
#156 = APPLICATION_PROTOCOL_DEFINITION ( 'international standard', 'config_control_design', 1994, #163 ) ;
#157 = AXIS2_PLACEMENT_3D ( 'NONE', #148, #276, #298 ) ;
#158 = EDGE_CURVE ( 'NONE', #176, #176, #44, .T. ) ;
#159 = FACE_OUTER_BOUND ( 'NONE', #160, .T. ) ;
#160 = EDGE_LOOP ( 'NONE', ( #68 ) ) ;
#161 = EDGE_LOOP ( 'NONE', ( #215 ) ) ;
#162 = UNCERTAINTY_MEASURE_WITH_UNIT (LENGTH_MEASURE( 1.000000000000000082E-05 ), #119, 'distance_accuracy_value', 'NONE');
#163 = APPLICATION_CONTEXT ( 'configuration controlled 3d designs of mechanical parts and assemblies' ) ;
#164 = ORIENTED_EDGE ( 'NONE', *, *, #253, .F. ) ;
#165 = LOCAL_TIME ( 15, 55, 51.00000000000000000, #272 ) ;
#166 = DIRECTION ( 'NONE',  ( 4.275831445896959482E-31, 1.000000000000000000, 1.224646799147353207E-16 ) ) ;
#167 = EDGE_LOOP ( 'NONE', ( #9, #245 ) ) ;
#168 = AXIS2_PLACEMENT_3D ( 'NONE', #198, #73, #166 ) ;
#169 = PLANE ( 'NONE',  #83 ) ;
#170 = CALENDAR_DATE ( 2021, 3, 12 ) ;
#171 = PERSON_AND_ORGANIZATION_ROLE ( 'creator' ) ;
#172 = DIRECTION ( 'NONE',  ( 4.275831445896958607E-31, 1.000000000000000000, 1.224646799147353207E-16 ) ) ;
#173 = SHAPE_DEFINITION_REPRESENTATION ( #186, #115 ) ;
#174 = CARTESIAN_POINT ( 'NONE',  ( -1.282749433769087932E-30, -1.500000000000000000, -3.673940397442060361E-16 ) ) ;
#175 = DIRECTION ( 'NONE',  ( -3.491481338843133355E-15, 1.224646799147353207E-16, -1.000000000000000000 ) ) ;
#176 = VERTEX_POINT ( 'NONE', #279 ) ;
#177 = CARTESIAN_POINT ( 'NONE',  ( 1.222018468595096674E-14, 1.377777306778879884, 3.500000000000000000 ) ) ;
#178 = CC_DESIGN_PERSON_AND_ORGANIZATION_ASSIGNMENT ( #79, #171, ( #56 ) ) ;
#179 = AXIS2_PLACEMENT_3D ( 'NONE', #285, #204, #19 ) ;
#180 = PRODUCT_DEFINITION_FORMATION_WITH_SPECIFIED_SOURCE ( 'ANY', '', #155, .NOT_KNOWN. ) ;
#181 = DIRECTION ( 'NONE',  ( -4.275831445896958607E-31, -1.000000000000000000, -1.224646799147353207E-16 ) ) ;
#182 = CARTESIAN_POINT ( 'NONE',  ( 5.237222008264700033E-14, -1.836970198721029589E-15, 15.00000000000000000 ) ) ;
#183 = DATE_AND_TIME ( #129, #92 ) ;
#184 = EDGE_CURVE ( 'NONE', #241, #188, #278, .T. ) ;
#185 = FACE_OUTER_BOUND ( 'NONE', #138, .T. ) ;
#186 = PRODUCT_DEFINITION_SHAPE ( 'NONE', 'NONE',  #56 ) ;
#187 = VECTOR ( 'NONE', #193, 1000.000000000000227 ) ;
#188 = VERTEX_POINT ( 'NONE', #57 ) ;
#189 = ORIENTED_EDGE ( 'NONE', *, *, #297, .F. ) ;
#190 = ORIENTED_EDGE ( 'NONE', *, *, #108, .F. ) ;
#191 = EDGE_CURVE ( 'NONE', #188, #52, #247, .T. ) ;
#192 = CONICAL_SURFACE ( 'NONE', #265, 1.599999999999998312, 0.7853981633974512766 ) ;
#193 = DIRECTION ( 'NONE',  ( 3.489354422748178188E-15, 0.03489949670250162145, 0.9993908270190956511 ) ) ;
#194 = EDGE_LOOP ( 'NONE', ( #190 ) ) ;
#195 = CC_DESIGN_PERSON_AND_ORGANIZATION_ASSIGNMENT ( #17, #100, ( #208 ) ) ;
#196 = CARTESIAN_POINT ( 'NONE',  ( 1.222018468595096674E-14, 1.033167497085565878E-32, 3.500000000000000000 ) ) ;
#197 = PERSON_AND_ORGANIZATION ( #74, #236 ) ;
#198 = CARTESIAN_POINT ( 'NONE',  ( -6.413747168845438786E-31, 2.249639673992786412E-32, -1.836970198721029934E-16 ) ) ;
#199 = DIRECTION ( 'NONE',  ( -3.491481338843133355E-15, 1.224646799147353207E-16, -1.000000000000000000 ) ) ;
#200 =( NAMED_UNIT ( * ) SI_UNIT ( $, .STERADIAN. ) SOLID_ANGLE_UNIT ( ) );
#201 = CIRCLE ( 'NONE', #63, 1.377777306778880329 ) ;
#202 = COORDINATED_UNIVERSAL_TIME_OFFSET ( 1, 0, .AHEAD. ) ;
#203 = ADVANCED_FACE ( 'NONE', ( #142, #244 ), #222, .T. ) ;
#204 = DIRECTION ( 'NONE',  ( -3.491481338843133355E-15, 1.224646799147353207E-16, -1.000000000000000000 ) ) ;
#205 = CARTESIAN_POINT ( 'NONE',  ( 1.222018468595096674E-14, 1.033167497085565878E-32, 3.500000000000000000 ) ) ;
#206 = FACE_OUTER_BOUND ( 'NONE', #27, .T. ) ;
#207 = CLOSED_SHELL ( 'NONE', ( #286, #120, #131, #154 ) ) ;
#208 = SECURITY_CLASSIFICATION ( '', '', #59 ) ;
#209 = DIRECTION ( 'NONE',  ( 0.0000000000000000000, 1.000000000000000000, 0.0000000000000000000 ) ) ;
#210 = CC_DESIGN_DATE_AND_TIME_ASSIGNMENT ( #248, #35, ( #56 ) ) ;
#211 = FACE_BOUND ( 'NONE', #238, .T. ) ;
#212 = CYLINDRICAL_SURFACE ( 'NONE', #235, 1.377777306778880329 ) ;
#213 = DESIGN_CONTEXT ( 'detailed design', #163, 'design' ) ;
#214 = DIRECTION ( 'NONE',  ( -3.491481338843133355E-15, 1.224646799147353207E-16, -1.000000000000000000 ) ) ;
#215 = ORIENTED_EDGE ( 'NONE', *, *, #85, .T. ) ;
#216 = ADVANCED_FACE ( 'NONE', ( #226 ), #169, .F. ) ;
#217 = CIRCLE ( 'NONE', #51, 1.377777306778880329 ) ;
#218 = DIRECTION ( 'NONE',  ( 0.0000000000000000000, 1.000000000000000000, 0.0000000000000000000 ) ) ;
#219 = APPROVAL_ROLE ( '' ) ;
#220 =( GEOMETRIC_REPRESENTATION_CONTEXT ( 3 ) GLOBAL_UNCERTAINTY_ASSIGNED_CONTEXT ( ( #162 ) ) GLOBAL_UNIT_ASSIGNED_CONTEXT ( ( #119, #225, #200 ) ) REPRESENTATION_CONTEXT ( 'NONE', 'WORKASPACE' ) );
#221 = CALENDAR_DATE ( 2021, 3, 12 ) ;
#222 = CYLINDRICAL_SURFACE ( 'NONE', #42, 1.999999999999997335 ) ;
#223 = APPROVAL_ROLE ( '' ) ;
#224 = CARTESIAN_POINT ( 'NONE',  ( 1.117274028429802674E-13, 1.199807826129478970E-32, 32.00000000000000000 ) ) ;
#225 =( NAMED_UNIT ( * ) PLANE_ANGLE_UNIT ( ) SI_UNIT ( $, .RADIAN. ) );
#226 = FACE_OUTER_BOUND ( 'NONE', #65, .T. ) ;
#227 = CONICAL_SURFACE ( 'NONE', #81, 1.511751902994441954, 0.5235987755983002589 ) ;
#228 = VERTEX_POINT ( 'NONE', #126 ) ;
#229 = APPROVAL_DATE_TIME ( #124, #150 ) ;
#230 = CARTESIAN_POINT ( 'NONE',  ( 5.707060355903097771E-14, 1.999999999999994449, 16.34567051071243426 ) ) ;
#231 = CARTESIAN_POINT ( 'NONE',  ( 1.103308103074430140E-13, -3.869883885305636046E-15, 31.60000000000000142 ) ) ;
#232 = APPROVAL_STATUS ( 'not_yet_approved' ) ;
#233 = APPROVAL_DATE_TIME ( #183, #255 ) ;
#234 = PLANE ( 'NONE',  #125 ) ;
#235 = AXIS2_PLACEMENT_3D ( 'NONE', #259, #139, #61 ) ;
#236 = ORGANIZATION ( 'UNSPECIFIED', 'UNSPECIFIED', '' ) ;
#237 = PERSON_AND_ORGANIZATION_ROLE ( 'design_owner' ) ;
#238 = EDGE_LOOP ( 'NONE', ( #263 ) ) ;
#239 = CARTESIAN_POINT ( 'NONE',  ( 1.117274028429802674E-13, -3.918869757271530263E-15, 32.00000000000000000 ) ) ;
#240 = ORIENTED_EDGE ( 'NONE', *, *, #70, .F. ) ;
#241 = VERTEX_POINT ( 'NONE', #31 ) ;
#242 = ORIENTED_EDGE ( 'NONE', *, *, #70, .T. ) ;
#243 = CIRCLE ( 'NONE', #99, 1.999999999999996669 ) ;
#244 = FACE_OUTER_BOUND ( 'NONE', #288, .T. ) ;
#245 = ORIENTED_EDGE ( 'NONE', *, *, #253, .T. ) ;
#246 = PERSON_AND_ORGANIZATION_ROLE ( 'design_supplier' ) ;
#247 = LINE ( 'NONE', #274, #75 ) ;
#248 = DATE_AND_TIME ( #221, #165 ) ;
#249 = CARTESIAN_POINT ( 'NONE',  ( 0.0000000000000000000, 1.500000000000000000, 0.0000000000000000000 ) ) ;
#250 = APPROVAL_DATE_TIME ( #296, #268 ) ;
#251 = CARTESIAN_POINT ( 'NONE',  ( 1.103308103074430140E-13, 1.999999999999994449, 31.60000000000000142 ) ) ;
#252 = LOCAL_TIME ( 15, 55, 51.00000000000000000, #95 ) ;
#253 = EDGE_CURVE ( 'NONE', #52, #262, #71, .T. ) ;
#254 = DIRECTION ( 'NONE',  ( 4.275831445896959482E-31, 1.000000000000000000, 1.224646799147353207E-16 ) ) ;
#255 = APPROVAL ( #232, 'UNSPECIFIED' ) ;
#256 = PERSON_AND_ORGANIZATION ( #74, #236 ) ;
#257 = CIRCLE ( 'NONE', #157, 1.377777306778880329 ) ;
#258 = APPROVAL_ROLE ( '' ) ;
#259 = CARTESIAN_POINT ( 'NONE',  ( 0.0000000000000000000, 0.0000000000000000000, 0.0000000000000000000 ) ) ;
#260 = MANIFOLD_SOLID_BREP ( 'Corps-Déplacer/Copier1[1]', #66 ) ;
#261 = EDGE_CURVE ( 'NONE', #262, #52, #6, .T. ) ;
#262 = VERTEX_POINT ( 'NONE', #174 ) ;
#263 = ORIENTED_EDGE ( 'NONE', *, *, #76, .F. ) ;
#264 = ORIENTED_EDGE ( 'NONE', *, *, #184, .F. ) ;
#265 = AXIS2_PLACEMENT_3D ( 'NONE', #239, #214, #8 ) ;
#266 = APPROVAL_PERSON_ORGANIZATION ( #128, #255, #258 ) ;
#267 = ORIENTED_EDGE ( 'NONE', *, *, #191, .F. ) ;
#268 = APPROVAL ( #294, 'UNSPECIFIED' ) ;
#269 = CARTESIAN_POINT ( 'NONE',  ( 0.0000000000000000000, 0.0000000000000000000, 0.0000000000000000000 ) ) ;
#270 = CONICAL_SURFACE ( 'NONE', #112, 1.500000000000000000, 0.03490658503988736810 ) ;
#271 = EDGE_CURVE ( 'NONE', #40, #40, #257, .T. ) ;
#272 = COORDINATED_UNIVERSAL_TIME_OFFSET ( 1, 0, .AHEAD. ) ;
#273 = PLANE ( 'NONE',  #141 ) ;
#274 = CARTESIAN_POINT ( 'NONE',  ( 1.499744159275245630E-13, -5.260394388374205272E-15, 42.95437992437245356 ) ) ;
#275 = PERSON_AND_ORGANIZATION ( #74, #236 ) ;
#276 = DIRECTION ( 'NONE',  ( -3.491481338843133355E-15, 1.224646799147353207E-16, -1.000000000000000000 ) ) ;
#277 = CARTESIAN_POINT ( 'NONE',  ( 5.411796075206856070E-14, 1.511751902994439956, 15.49999999999999822 ) ) ;
#278 = LINE ( 'NONE', #196, #54 ) ;
#279 = CARTESIAN_POINT ( 'NONE',  ( 1.117274028429802674E-13, 1.599999999999994538, 32.00000000000000000 ) ) ;
#280 = AXIS2_PLACEMENT_3D ( 'NONE', #80, #152, #2 ) ;
#281 = PERSON_AND_ORGANIZATION ( #74, #236 ) ;
#282 = CC_DESIGN_APPROVAL ( #255, ( #56 ) ) ;
#283 = CC_DESIGN_PERSON_AND_ORGANIZATION_ASSIGNMENT ( #281, #246, ( #180 ) ) ;
#284 = DIRECTION ( 'NONE',  ( 0.0000000000000000000, 1.000000000000000000, 0.0000000000000000000 ) ) ;
#285 = CARTESIAN_POINT ( 'NONE',  ( 5.411796075206856070E-14, -1.898202538678397163E-15, 15.49999999999999822 ) ) ;
#286 = ADVANCED_FACE ( 'NONE', ( #291 ), #15, .T. ) ;
#287 = ORIENTED_EDGE ( 'NONE', *, *, #85, .F. ) ;
#288 = EDGE_LOOP ( 'NONE', ( #242 ) ) ;
#289 = ORIENTED_EDGE ( 'NONE', *, *, #158, .T. ) ;
#290 = EDGE_LOOP ( 'NONE', ( #189, #88 ) ) ;
#291 = FACE_OUTER_BOUND ( 'NONE', #167, .T. ) ;
#292 = ORIENTED_EDGE ( 'NONE', *, *, #158, .F. ) ;
#293 = DIRECTION ( 'NONE',  ( 1.000000000000000000, 0.0000000000000000000, -3.491481338843133355E-15 ) ) ;
#294 = APPROVAL_STATUS ( 'not_yet_approved' ) ;
#295 = DIRECTION ( 'NONE',  ( 4.275831445896958607E-31, 1.000000000000000000, 1.224646799147353207E-16 ) ) ;
#296 = DATE_AND_TIME ( #170, #4 ) ;
#297 = EDGE_CURVE ( 'NONE', #241, #188, #201, .T. ) ;
#298 = DIRECTION ( 'NONE',  ( 0.0000000000000000000, 1.000000000000000000, 0.0000000000000000000 ) ) ;
#299 = APPLICATION_PROTOCOL_DEFINITION ( 'international standard', 'config_control_design', 1994, #96 ) ;
#300 = VECTOR ( 'NONE', #14, 1000.000000000000000 ) ;
#301 = PERSON_AND_ORGANIZATION_ROLE ( 'creator' ) ;
ENDSEC;
END-ISO-10303-21;
