ISO-10303-21;
HEADER;
FILE_DESCRIPTION (( 'STEP AP203' ),
    '1' );
FILE_NAME ('53204.step',
    '2021-12-03T14:55:50',
    ( '' ),
    ( '' ),
    'SwSTEP 2.0',
    'SolidWorks 2019',
    '' );
FILE_SCHEMA (( 'CONFIG_CONTROL_DESIGN' ));
ENDSEC;

DATA;
#1 = PERSON_AND_ORGANIZATION ( #126, #199 ) ;
#2 = EDGE_CURVE ( 'NONE', #244, #244, #9, .T. ) ;
#3 = CALENDAR_DATE ( 2021, 3, 12 ) ;
#4 = ORIENTED_EDGE ( 'NONE', *, *, #28, .F. ) ;
#5 = EDGE_LOOP ( 'NONE', ( #211, #221, #151, #237 ) ) ;
#6 = SECURITY_CLASSIFICATION ( '', '', #297 ) ;
#7 = ADVANCED_FACE ( 'NONE', ( #190 ), #124, .T. ) ;
#8 = APPLICATION_CONTEXT ( 'configuration controlled 3d designs of mechanical parts and assemblies' ) ;
#9 = CIRCLE ( 'NONE', #264, 2.000000000000000888 ) ;
#10 = FACE_OUTER_BOUND ( 'NONE', #215, .T. ) ;
#11 = EDGE_CURVE ( 'NONE', #265, #265, #46, .T. ) ;
#12 = CARTESIAN_POINT ( 'NONE',  ( -1.068957861474239564E-30, -1.250000000000000000, -3.061616997868383141E-16 ) ) ;
#13 = AXIS2_PLACEMENT_3D ( 'NONE', #83, #155, #281 ) ;
#14 = APPROVAL_PERSON_ORGANIZATION ( #45, #149, #88 ) ;
#15 = DIRECTION ( 'NONE',  ( 1.000000000000000000, 0.0000000000000000000, -3.491481338843133355E-15 ) ) ;
#16 = CARTESIAN_POINT ( 'NONE',  ( 4.189777606611760026E-14, -1.301042606982605321E-15, 12.00000000000000000 ) ) ;
#17 = DIRECTION ( 'NONE',  ( -3.491481338843133355E-15, 1.224646799147353207E-16, -1.000000000000000000 ) ) ;
#18 = PERSON_AND_ORGANIZATION_ROLE ( 'design_supplier' ) ;
#19 = COORDINATED_UNIVERSAL_TIME_OFFSET ( 1, 0, .AHEAD. ) ;
#20 = VERTEX_POINT ( 'NONE', #57 ) ;
#21 = CARTESIAN_POINT ( 'NONE',  ( 1.103308103074430140E-13, -3.869883885305636046E-15, 31.60000000000000142 ) ) ;
#22 = DIRECTION ( 'NONE',  ( 3.491481338843133355E-15, -1.224646799147353207E-16, 1.000000000000000000 ) ) ;
#23 = EDGE_LOOP ( 'NONE', ( #120 ) ) ;
#24 = SHAPE_DEFINITION_REPRESENTATION ( #138, #48 ) ;
#25 = DIRECTION ( 'NONE',  ( 4.275831445896958607E-31, 1.000000000000000000, 1.224646799147353207E-16 ) ) ;
#26 = APPROVAL_DATE_TIME ( #240, #125 ) ;
#27 = LOCAL_TIME ( 15, 55, 50.00000000000000000, #204 ) ;
#28 = EDGE_CURVE ( 'NONE', #241, #241, #169, .T. ) ;
#29 = FACE_OUTER_BOUND ( 'NONE', #58, .T. ) ;
#30 = UNCERTAINTY_MEASURE_WITH_UNIT (LENGTH_MEASURE( 1.000000000000000082E-05 ), #69, 'distance_accuracy_value', 'NONE');
#31 = DIRECTION ( 'NONE',  ( -3.491481338843133355E-15, 1.224646799147353207E-16, -1.000000000000000000 ) ) ;
#32 = TOROIDAL_SURFACE ( 'NONE', #38, 2.145237691524754187, 0.9999999999999995559 ) ;
#33 = ORIENTED_EDGE ( 'NONE', *, *, #118, .T. ) ;
#34 = DIRECTION ( 'NONE',  ( 4.275831445896958607E-31, 1.000000000000000000, 1.224646799147353207E-16 ) ) ;
#35 = CARTESIAN_POINT ( 'NONE',  ( 4.364351673553916694E-14, -1.530808498934191521E-15, 12.50000000000000000 ) ) ;
#36 = DATE_AND_TIME ( #128, #233 ) ;
#37 = DIRECTION ( 'NONE',  ( 4.275831445896958607E-31, 1.000000000000000000, 1.224646799147353207E-16 ) ) ;
#38 = AXIS2_PLACEMENT_3D ( 'NONE', #16, #17, #34 ) ;
#39 = APPROVAL_STATUS ( 'not_yet_approved' ) ;
#40 = VERTEX_POINT ( 'NONE', #257 ) ;
#41 = DIRECTION ( 'NONE',  ( 0.0000000000000000000, 1.000000000000000000, 0.0000000000000000000 ) ) ;
#42 = ORIENTED_EDGE ( 'NONE', *, *, #65, .F. ) ;
#43 = CARTESIAN_POINT ( 'NONE',  ( 0.0000000000000000000, 0.0000000000000000000, 0.0000000000000000000 ) ) ;
#44 = PERSON_AND_ORGANIZATION ( #126, #199 ) ;
#45 = PERSON_AND_ORGANIZATION ( #126, #199 ) ;
#46 = CIRCLE ( 'NONE', #75, 1.145237691524754853 ) ;
#47 =( NAMED_UNIT ( * ) SI_UNIT ( $, .STERADIAN. ) SOLID_ANGLE_UNIT ( ) );
#48 = ADVANCED_BREP_SHAPE_REPRESENTATION ( '53204', ( #101, #212, #282 ), #93 ) ;
#49 = CONICAL_SURFACE ( 'NONE', #197, 1.600000000000000977, 0.7853981633974512766 ) ;
#50 = VERTEX_POINT ( 'NONE', #142 ) ;
#51 = APPROVAL ( #163, 'UNSPECIFIED' ) ;
#52 = ORIENTED_EDGE ( 'NONE', *, *, #28, .T. ) ;
#53 = FACE_OUTER_BOUND ( 'NONE', #110, .T. ) ;
#54 = CIRCLE ( 'NONE', #79, 1.145237691524754853 ) ;
#55 = CARTESIAN_POINT ( 'NONE',  ( 4.189777606611760026E-14, -1.469576158976823947E-15, 12.00000000000000000 ) ) ;
#56 = EDGE_LOOP ( 'NONE', ( #177, #286 ) ) ;
#57 = CARTESIAN_POINT ( 'NONE',  ( 1.047444401652939849E-14, -1.145237691524755519, 2.999999999999999556 ) ) ;
#58 = EDGE_LOOP ( 'NONE', ( #61 ) ) ;
#59 = CARTESIAN_POINT ( 'NONE',  ( 0.0000000000000000000, 1.250000000000000000, 0.0000000000000000000 ) ) ;
#60 = AXIS2_PLACEMENT_3D ( 'NONE', #191, #73, #238 ) ;
#61 = ORIENTED_EDGE ( 'NONE', *, *, #112, .T. ) ;
#62 = PLANE ( 'NONE',  #256 ) ;
#63 = CLOSED_SHELL ( 'NONE', ( #274, #7, #289, #170 ) ) ;
#64 = DIRECTION ( 'NONE',  ( 4.275831445896958607E-31, 1.000000000000000000, 1.224646799147353207E-16 ) ) ;
#65 = EDGE_CURVE ( 'NONE', #50, #50, #287, .T. ) ;
#66 = DIRECTION ( 'NONE',  ( -3.491481338843133355E-15, 1.224646799147353207E-16, -1.000000000000000000 ) ) ;
#67 = PERSON_AND_ORGANIZATION_ROLE ( 'classification_officer' ) ;
#68 = PRODUCT_DEFINITION_FORMATION_WITH_SPECIFIED_SOURCE ( 'ANY', '', #166, .NOT_KNOWN. ) ;
#69 =( LENGTH_UNIT ( ) NAMED_UNIT ( * ) SI_UNIT ( .MILLI., .METRE. ) );
#70 = DATE_TIME_ROLE ( 'creation_date' ) ;
#71 = ADVANCED_FACE ( 'NONE', ( #29, #268 ), #95, .T. ) ;
#72 = CARTESIAN_POINT ( 'NONE',  ( -5.344789307371197820E-31, 1.874699728327322010E-32, -1.530808498934191571E-16 ) ) ;
#73 = DIRECTION ( 'NONE',  ( -3.491481338843133355E-15, 1.224646799147353207E-16, -1.000000000000000000 ) ) ;
#74 = DIRECTION ( 'NONE',  ( -3.491481338843133355E-15, 1.224646799147353207E-16, -1.000000000000000000 ) ) ;
#75 = AXIS2_PLACEMENT_3D ( 'NONE', #192, #74, #245 ) ;
#76 = LINE ( 'NONE', #96, #86 ) ;
#77 = CIRCLE ( 'NONE', #13, 1.999999999999997780 ) ;
#78 = VERTEX_POINT ( 'NONE', #59 ) ;
#79 = AXIS2_PLACEMENT_3D ( 'NONE', #229, #277, #41 ) ;
#80 = FACE_OUTER_BOUND ( 'NONE', #113, .T. ) ;
#81 = PLANE ( 'NONE',  #255 ) ;
#82 = EDGE_CURVE ( 'NONE', #78, #90, #220, .T. ) ;
#83 = CARTESIAN_POINT ( 'NONE',  ( 4.800242497707243564E-14, -1.683698418934149534E-15, 13.74844093910510345 ) ) ;
#84 = CARTESIAN_POINT ( 'NONE',  ( 1.117274028429802674E-13, 1.199807826129481023E-32, 32.00000000000000000 ) ) ;
#85 = DIRECTION ( 'NONE',  ( 4.275831445896958607E-31, 1.000000000000000000, 1.224646799147353207E-16 ) ) ;
#86 = VECTOR ( 'NONE', #150, 1000.000000000000114 ) ;
#87 = PERSON_AND_ORGANIZATION ( #126, #199 ) ;
#88 = APPROVAL_ROLE ( '' ) ;
#89 = CC_DESIGN_APPROVAL ( #125, ( #6 ) ) ;
#90 = VERTEX_POINT ( 'NONE', #12 ) ;
#91 = DIRECTION ( 'NONE',  ( 0.0000000000000000000, 1.000000000000000000, 0.0000000000000000000 ) ) ;
#92 = CC_DESIGN_PERSON_AND_ORGANIZATION_ASSIGNMENT ( #1, #275, ( #68 ) ) ;
#93 =( GEOMETRIC_REPRESENTATION_CONTEXT ( 3 ) GLOBAL_UNCERTAINTY_ASSIGNED_CONTEXT ( ( #30 ) ) GLOBAL_UNIT_ASSIGNED_CONTEXT ( ( #69, #130, #47 ) ) REPRESENTATION_CONTEXT ( 'NONE', 'WORKASPACE' ) );
#94 = DIRECTION ( 'NONE',  ( -3.491481338843133355E-15, 1.224646799147353207E-16, -1.000000000000000000 ) ) ;
#95 = CYLINDRICAL_SURFACE ( 'NONE', #239, 1.145237691524754631 ) ;
#96 = CARTESIAN_POINT ( 'NONE',  ( 1.249786799396042527E-13, -4.383661990311853635E-15, 35.79531660364384038 ) ) ;
#97 = CIRCLE ( 'NONE', #168, 1.145237691524754409 ) ;
#98 = DIRECTION ( 'NONE',  ( 0.0000000000000000000, 1.000000000000000000, 0.0000000000000000000 ) ) ;
#99 = DIRECTION ( 'NONE',  ( 3.491481338843133355E-15, -1.224646799147353207E-16, 1.000000000000000000 ) ) ;
#100 = EDGE_CURVE ( 'NONE', #90, #20, #76, .T. ) ;
#101 = MANIFOLD_SOLID_BREP ( 'Corps-Déplacer/Copier1[1]', #152 ) ;
#102 = PERSON_AND_ORGANIZATION ( #126, #199 ) ;
#103 = APPROVAL_ROLE ( '' ) ;
#104 = DIRECTION ( 'NONE',  ( -4.275831445896958607E-31, -1.000000000000000000, -1.224646799147353207E-16 ) ) ;
#105 = APPLICATION_CONTEXT ( 'configuration controlled 3d designs of mechanical parts and assemblies' ) ;
#106 = FACE_OUTER_BOUND ( 'NONE', #23, .T. ) ;
#107 = DIRECTION ( 'NONE',  ( 0.0000000000000000000, 0.0000000000000000000, 1.000000000000000000 ) ) ;
#108 = AXIS2_PLACEMENT_3D ( 'NONE', #117, #219, #290 ) ;
#109 = CALENDAR_DATE ( 2021, 3, 12 ) ;
#110 = EDGE_LOOP ( 'NONE', ( #194, #198 ) ) ;
#111 = COORDINATED_UNIVERSAL_TIME_OFFSET ( 1, 0, .AHEAD. ) ;
#112 = EDGE_CURVE ( 'NONE', #40, #40, #97, .T. ) ;
#113 = EDGE_LOOP ( 'NONE', ( #227 ) ) ;
#114 = AXIS2_PLACEMENT_3D ( 'NONE', #35, #99, #182 ) ;
#115 = CARTESIAN_POINT ( 'NONE',  ( 4.364351673553916694E-14, 1.279212287740314258, 12.50000000000000000 ) ) ;
#116 = ORIENTED_EDGE ( 'NONE', *, *, #258, .T. ) ;
#117 = CARTESIAN_POINT ( 'NONE',  ( 4.364351673553916694E-14, -1.530808498934191521E-15, 12.50000000000000000 ) ) ;
#118 = EDGE_CURVE ( 'NONE', #271, #78, #146, .T. ) ;
#119 = FACE_OUTER_BOUND ( 'NONE', #189, .T. ) ;
#120 = ORIENTED_EDGE ( 'NONE', *, *, #2, .T. ) ;
#121 = CARTESIAN_POINT ( 'NONE',  ( 0.0000000000000000000, 1.250000000000000000, 0.0000000000000000000 ) ) ;
#122 = ORIENTED_EDGE ( 'NONE', *, *, #65, .T. ) ;
#123 = ORIENTED_EDGE ( 'NONE', *, *, #210, .F. ) ;
#124 = CONICAL_SURFACE ( 'NONE', #179, 1.250000000000000000, 0.03490658503988723627 ) ;
#125 = APPROVAL ( #39, 'UNSPECIFIED' ) ;
#126 = PERSON ( 'UNSPECIFIED', 'UNSPECIFIED', 'UNSPECIFIED', ('UNSPECIFIED'), ('UNSPECIFIED'), ('UNSPECIFIED') ) ;
#127 = FACE_OUTER_BOUND ( 'NONE', #269, .T. ) ;
#128 = CALENDAR_DATE ( 2021, 3, 12 ) ;
#129 = FACE_OUTER_BOUND ( 'NONE', #165, .T. ) ;
#130 =( NAMED_UNIT ( * ) PLANE_ANGLE_UNIT ( ) SI_UNIT ( $, .RADIAN. ) );
#131 = FACE_BOUND ( 'NONE', #217, .T. ) ;
#132 = AXIS2_PLACEMENT_3D ( 'NONE', #167, #22, #137 ) ;
#133 = CC_DESIGN_PERSON_AND_ORGANIZATION_ASSIGNMENT ( #160, #18, ( #68 ) ) ;
#134 = APPROVAL_STATUS ( 'not_yet_approved' ) ;
#135 = DIRECTION ( 'NONE',  ( 1.000000000000000000, 0.0000000000000000000, 0.0000000000000000000 ) ) ;
#136 = EDGE_LOOP ( 'NONE', ( #291 ) ) ;
#137 = DIRECTION ( 'NONE',  ( -4.275831445896958607E-31, -1.000000000000000000, -1.224646799147353207E-16 ) ) ;
#138 = PRODUCT_DEFINITION_SHAPE ( 'NONE', 'NONE',  #206 ) ;
#139 = CARTESIAN_POINT ( 'NONE',  ( 1.047444401652940007E-14, 1.145237691524754409, 3.000000000000000000 ) ) ;
#140 = AXIS2_PLACEMENT_3D ( 'NONE', #294, #66, #37 ) ;
#141 = DIRECTION ( 'NONE',  ( -3.491481338843133355E-15, 1.224646799147353207E-16, -1.000000000000000000 ) ) ;
#142 = CARTESIAN_POINT ( 'NONE',  ( 1.117274028429802674E-13, 1.599999999999996980, 32.00000000000000000 ) ) ;
#143 = ORIENTED_EDGE ( 'NONE', *, *, #112, .F. ) ;
#144 = VECTOR ( 'NONE', #85, 1000.000000000000000 ) ;
#145 = PLANE ( 'NONE',  #132 ) ;
#146 = LINE ( 'NONE', #266, #213 ) ;
#147 = DIRECTION ( 'NONE',  ( 0.0000000000000000000, 1.000000000000000000, 0.0000000000000000000 ) ) ;
#148 = EDGE_LOOP ( 'NONE', ( #123, #248, #116, #33 ) ) ;
#149 = APPROVAL ( #134, 'UNSPECIFIED' ) ;
#150 = DIRECTION ( 'NONE',  ( 3.489354422748178188E-15, 0.03489949670250148267, 0.9993908270190956511 ) ) ;
#151 = ORIENTED_EDGE ( 'NONE', *, *, #267, .F. ) ;
#152 = CLOSED_SHELL ( 'NONE', ( #216, #71, #156, #162, #186, #218, #260 ) ) ;
#153 = PLANE ( 'NONE',  #60 ) ;
#154 = APPROVAL_DATE_TIME ( #209, #149 ) ;
#155 = DIRECTION ( 'NONE',  ( -3.491481338843133355E-15, 1.224646799147353207E-16, -1.000000000000000000 ) ) ;
#156 = ADVANCED_FACE ( 'NONE', ( #119, #10 ), #32, .F. ) ;
#157 = DATE_TIME_ROLE ( 'classification_date' ) ;
#158 = CIRCLE ( 'NONE', #223, 1.250000000000000000 ) ;
#159 = FACE_OUTER_BOUND ( 'NONE', #259, .T. ) ;
#160 = PERSON_AND_ORGANIZATION ( #126, #199 ) ;
#161 = MECHANICAL_CONTEXT ( 'NONE', #105, 'mechanical' ) ;
#162 = ADVANCED_FACE ( 'NONE', ( #159, #296 ), #280, .T. ) ;
#163 = APPROVAL_STATUS ( 'not_yet_approved' ) ;
#164 = EDGE_LOOP ( 'NONE', ( #42 ) ) ;
#165 = EDGE_LOOP ( 'NONE', ( #288 ) ) ;
#166 = PRODUCT ( '53204', '53204', '', ( #161 ) ) ;
#167 = CARTESIAN_POINT ( 'NONE',  ( 1.047444401652940007E-14, 8.587907156686663677E-33, 3.000000000000000000 ) ) ;
#168 = AXIS2_PLACEMENT_3D ( 'NONE', #55, #196, #98 ) ;
#169 = CIRCLE ( 'NONE', #108, 1.279212287740315812 ) ;
#170 = ADVANCED_FACE ( 'NONE', ( #201 ), #81, .T. ) ;
#171 = DIRECTION ( 'NONE',  ( 4.275831445896959482E-31, 1.000000000000000000, 1.224646799147352961E-16 ) ) ;
#172 = APPROVAL_PERSON_ORGANIZATION ( #87, #125, #263 ) ;
#173 = DIRECTION ( 'NONE',  ( -3.491481338843133355E-15, 1.224646799147353207E-16, -1.000000000000000000 ) ) ;
#174 = DESIGN_CONTEXT ( 'detailed design', #8, 'design' ) ;
#175 = EDGE_LOOP ( 'NONE', ( #4 ) ) ;
#176 = LOCAL_TIME ( 15, 55, 50.00000000000000000, #184 ) ;
#177 = ORIENTED_EDGE ( 'NONE', *, *, #210, .T. ) ;
#178 = PLANE ( 'NONE',  #208 ) ;
#179 = AXIS2_PLACEMENT_3D ( 'NONE', #72, #141, #25 ) ;
#180 = CARTESIAN_POINT ( 'NONE',  ( 1.047444401652940007E-14, 8.587907156686663677E-33, 3.000000000000000000 ) ) ;
#181 = APPLICATION_PROTOCOL_DEFINITION ( 'international standard', 'config_control_design', 1994, #8 ) ;
#182 = DIRECTION ( 'NONE',  ( 0.0000000000000000000, -1.000000000000000000, 0.0000000000000000000 ) ) ;
#183 = DIRECTION ( 'NONE',  ( 4.275831445896958607E-31, 1.000000000000000000, 1.224646799147353207E-16 ) ) ;
#184 = COORDINATED_UNIVERSAL_TIME_OFFSET ( 1, 0, .AHEAD. ) ;
#185 = CARTESIAN_POINT ( 'NONE',  ( 1.047444401652940007E-14, 1.145237691524754409, 3.000000000000000000 ) ) ;
#186 = ADVANCED_FACE ( 'NONE', ( #127, #106 ), #226, .T. ) ;
#187 = LOCAL_TIME ( 15, 55, 50.00000000000000000, #19 ) ;
#188 = CALENDAR_DATE ( 2021, 3, 12 ) ;
#189 = EDGE_LOOP ( 'NONE', ( #52 ) ) ;
#190 = FACE_OUTER_BOUND ( 'NONE', #148, .T. ) ;
#191 = CARTESIAN_POINT ( 'NONE',  ( -2.672394653685598910E-31, 9.373498641636610049E-33, -7.654042494670957853E-17 ) ) ;
#192 = CARTESIAN_POINT ( 'NONE',  ( 1.047444401652940007E-14, -3.673940397442059868E-16, 3.000000000000000000 ) ) ;
#193 = CC_DESIGN_DATE_AND_TIME_ASSIGNMENT ( #284, #70, ( #206 ) ) ;
#194 = ORIENTED_EDGE ( 'NONE', *, *, #258, .F. ) ;
#195 = CC_DESIGN_SECURITY_CLASSIFICATION ( #6, ( #68 ) ) ;
#196 = DIRECTION ( 'NONE',  ( -3.491481338843133355E-15, 1.224646799147353207E-16, -1.000000000000000000 ) ) ;
#197 = AXIS2_PLACEMENT_3D ( 'NONE', #276, #273, #231 ) ;
#198 = ORIENTED_EDGE ( 'NONE', *, *, #267, .T. ) ;
#199 = ORGANIZATION ( 'UNSPECIFIED', 'UNSPECIFIED', '' ) ;
#200 = LOCAL_TIME ( 15, 55, 50.00000000000000000, #111 ) ;
#201 = FACE_OUTER_BOUND ( 'NONE', #5, .T. ) ;
#202 = CC_DESIGN_DATE_AND_TIME_ASSIGNMENT ( #234, #157, ( #6 ) ) ;
#203 = DIRECTION ( 'NONE',  ( -3.491481338843133355E-15, 1.224646799147353207E-16, -1.000000000000000000 ) ) ;
#204 = COORDINATED_UNIVERSAL_TIME_OFFSET ( 1, 0, .AHEAD. ) ;
#205 = FACE_OUTER_BOUND ( 'NONE', #164, .T. ) ;
#206 = PRODUCT_DEFINITION ( 'UNKNOWN', '', #68, #174 ) ;
#207 = CARTESIAN_POINT ( 'NONE',  ( 1.047444401652940007E-14, 8.587907156686663677E-33, 3.000000000000000000 ) ) ;
#208 = AXIS2_PLACEMENT_3D ( 'NONE', #180, #295, #104 ) ;
#209 = DATE_AND_TIME ( #109, #187 ) ;
#210 = EDGE_CURVE ( 'NONE', #90, #78, #158, .T. ) ;
#211 = ORIENTED_EDGE ( 'NONE', *, *, #82, .F. ) ;
#212 = MANIFOLD_SOLID_BREP ( 'Corps-Déplacer/Copier1[2]', #63 ) ;
#213 = VECTOR ( 'NONE', #246, 1000.000000000000114 ) ;
#214 = ORIENTED_EDGE ( 'NONE', *, *, #224, .T. ) ;
#215 = EDGE_LOOP ( 'NONE', ( #143 ) ) ;
#216 = ADVANCED_FACE ( 'NONE', ( #129 ), #178, .F. ) ;
#217 = EDGE_LOOP ( 'NONE', ( #122 ) ) ;
#218 = ADVANCED_FACE ( 'NONE', ( #80, #131 ), #49, .T. ) ;
#219 = DIRECTION ( 'NONE',  ( -3.491481338843133355E-15, 1.224646799147353207E-16, -1.000000000000000000 ) ) ;
#220 = LINE ( 'NONE', #121, #262 ) ;
#221 = ORIENTED_EDGE ( 'NONE', *, *, #118, .F. ) ;
#222 = DIRECTION ( 'NONE',  ( -4.275831445896958607E-31, -1.000000000000000000, -1.224646799147353207E-16 ) ) ;
#223 = AXIS2_PLACEMENT_3D ( 'NONE', #252, #203, #64 ) ;
#224 = EDGE_CURVE ( 'NONE', #283, #283, #77, .T. ) ;
#225 = CC_DESIGN_APPROVAL ( #149, ( #68 ) ) ;
#226 = CYLINDRICAL_SURFACE ( 'NONE', #140, 1.999999999999999112 ) ;
#227 = ORIENTED_EDGE ( 'NONE', *, *, #2, .F. ) ;
#228 = PERSON_AND_ORGANIZATION ( #126, #199 ) ;
#229 = CARTESIAN_POINT ( 'NONE',  ( 1.047444401652940007E-14, -3.673940397442059868E-16, 3.000000000000000000 ) ) ;
#230 = PERSON_AND_ORGANIZATION ( #126, #199 ) ;
#231 = DIRECTION ( 'NONE',  ( 0.0000000000000000000, 1.000000000000000000, 0.0000000000000000000 ) ) ;
#232 = DIRECTION ( 'NONE',  ( -3.491481338843133355E-15, 1.224646799147353207E-16, -1.000000000000000000 ) ) ;
#233 = LOCAL_TIME ( 15, 55, 50.00000000000000000, #253 ) ;
#234 = DATE_AND_TIME ( #188, #176 ) ;
#235 = CARTESIAN_POINT ( 'NONE',  ( 4.800242497707243564E-14, 1.999999999999996225, 13.74844093910510345 ) ) ;
#236 = APPROVAL_DATE_TIME ( #36, #51 ) ;
#237 = ORIENTED_EDGE ( 'NONE', *, *, #100, .F. ) ;
#238 = DIRECTION ( 'NONE',  ( 4.275831445896958607E-31, 1.000000000000000000, 1.224646799147353207E-16 ) ) ;
#239 = AXIS2_PLACEMENT_3D ( 'NONE', #247, #31, #171 ) ;
#240 = DATE_AND_TIME ( #3, #200 ) ;
#241 = VERTEX_POINT ( 'NONE', #115 ) ;
#242 = ORIENTED_EDGE ( 'NONE', *, *, #224, .F. ) ;
#243 = CC_DESIGN_APPROVAL ( #51, ( #206 ) ) ;
#244 = VERTEX_POINT ( 'NONE', #261 ) ;
#245 = DIRECTION ( 'NONE',  ( 0.0000000000000000000, 1.000000000000000000, 0.0000000000000000000 ) ) ;
#246 = DIRECTION ( 'NONE',  ( -3.489354422748178188E-15, 0.03489949670250173247, -0.9993908270190956511 ) ) ;
#247 = CARTESIAN_POINT ( 'NONE',  ( 0.0000000000000000000, 0.0000000000000000000, 0.0000000000000000000 ) ) ;
#248 = ORIENTED_EDGE ( 'NONE', *, *, #100, .T. ) ;
#249 = CC_DESIGN_PERSON_AND_ORGANIZATION_ASSIGNMENT ( #230, #251, ( #206 ) ) ;
#250 = DIRECTION ( 'NONE',  ( -3.491481338843133355E-15, 0.0000000000000000000, -1.000000000000000000 ) ) ;
#251 = PERSON_AND_ORGANIZATION_ROLE ( 'creator' ) ;
#252 = CARTESIAN_POINT ( 'NONE',  ( -5.344789307371197820E-31, 1.874699728327322010E-32, -1.530808498934191571E-16 ) ) ;
#253 = COORDINATED_UNIVERSAL_TIME_OFFSET ( 1, 0, .AHEAD. ) ;
#254 = CARTESIAN_POINT ( 'NONE',  ( 0.0000000000000000000, 0.0000000000000000000, 0.0000000000000000000 ) ) ;
#255 = AXIS2_PLACEMENT_3D ( 'NONE', #254, #15, #250 ) ;
#256 = AXIS2_PLACEMENT_3D ( 'NONE', #84, #232, #183 ) ;
#257 = CARTESIAN_POINT ( 'NONE',  ( 4.189777606611760026E-14, 1.145237691524752854, 12.00000000000000000 ) ) ;
#258 = EDGE_CURVE ( 'NONE', #20, #271, #54, .T. ) ;
#259 = EDGE_LOOP ( 'NONE', ( #214 ) ) ;
#260 = ADVANCED_FACE ( 'NONE', ( #205 ), #62, .F. ) ;
#261 = CARTESIAN_POINT ( 'NONE',  ( 1.103308103074430140E-13, 1.999999999999997113, 31.60000000000000142 ) ) ;
#262 = VECTOR ( 'NONE', #222, 1000.000000000000000 ) ;
#263 = APPROVAL_ROLE ( '' ) ;
#264 = AXIS2_PLACEMENT_3D ( 'NONE', #21, #94, #91 ) ;
#265 = VERTEX_POINT ( 'NONE', #139 ) ;
#266 = CARTESIAN_POINT ( 'NONE',  ( 1.249786799396042527E-13, -4.383661990311853635E-15, 35.79531660364384038 ) ) ;
#267 = EDGE_CURVE ( 'NONE', #20, #271, #278, .T. ) ;
#268 = FACE_OUTER_BOUND ( 'NONE', #136, .T. ) ;
#269 = EDGE_LOOP ( 'NONE', ( #242 ) ) ;
#270 = CARTESIAN_POINT ( 'NONE',  ( 1.117274028429802674E-13, -3.918869757271530263E-15, 32.00000000000000000 ) ) ;
#271 = VERTEX_POINT ( 'NONE', #185 ) ;
#272 = PRODUCT_RELATED_PRODUCT_CATEGORY ( 'detail', '', ( #166 ) ) ;
#273 = DIRECTION ( 'NONE',  ( -3.491481338843133355E-15, 1.224646799147353207E-16, -1.000000000000000000 ) ) ;
#274 = ADVANCED_FACE ( 'NONE', ( #293 ), #153, .T. ) ;
#275 = PERSON_AND_ORGANIZATION_ROLE ( 'creator' ) ;
#276 = CARTESIAN_POINT ( 'NONE',  ( 1.117274028429802674E-13, -3.918869757271530263E-15, 32.00000000000000000 ) ) ;
#277 = DIRECTION ( 'NONE',  ( -3.491481338843133355E-15, 1.224646799147353207E-16, -1.000000000000000000 ) ) ;
#278 = LINE ( 'NONE', #207, #144 ) ;
#279 = APPLICATION_PROTOCOL_DEFINITION ( 'international standard', 'config_control_design', 1994, #105 ) ;
#280 = CONICAL_SURFACE ( 'NONE', #114, 1.279212287740315812, 0.5235987755983000369 ) ;
#281 = DIRECTION ( 'NONE',  ( 0.0000000000000000000, 1.000000000000000000, 0.0000000000000000000 ) ) ;
#282 = AXIS2_PLACEMENT_3D ( 'NONE', #43, #107, #135 ) ;
#283 = VERTEX_POINT ( 'NONE', #235 ) ;
#284 = DATE_AND_TIME ( #301, #27 ) ;
#285 = CC_DESIGN_PERSON_AND_ORGANIZATION_ASSIGNMENT ( #102, #67, ( #6 ) ) ;
#286 = ORIENTED_EDGE ( 'NONE', *, *, #82, .T. ) ;
#287 = CIRCLE ( 'NONE', #299, 1.600000000000000977 ) ;
#288 = ORIENTED_EDGE ( 'NONE', *, *, #11, .T. ) ;
#289 = ADVANCED_FACE ( 'NONE', ( #53 ), #145, .T. ) ;
#290 = DIRECTION ( 'NONE',  ( 0.0000000000000000000, 1.000000000000000000, 0.0000000000000000000 ) ) ;
#291 = ORIENTED_EDGE ( 'NONE', *, *, #11, .F. ) ;
#292 = APPROVAL_PERSON_ORGANIZATION ( #228, #51, #103 ) ;
#293 = FACE_OUTER_BOUND ( 'NONE', #56, .T. ) ;
#294 = CARTESIAN_POINT ( 'NONE',  ( 0.0000000000000000000, 0.0000000000000000000, 0.0000000000000000000 ) ) ;
#295 = DIRECTION ( 'NONE',  ( 3.491481338843133355E-15, -1.224646799147353207E-16, 1.000000000000000000 ) ) ;
#296 = FACE_BOUND ( 'NONE', #175, .T. ) ;
#297 = SECURITY_CLASSIFICATION_LEVEL ( 'unclassified' ) ;
#298 = PERSON_AND_ORGANIZATION_ROLE ( 'design_owner' ) ;
#299 = AXIS2_PLACEMENT_3D ( 'NONE', #270, #173, #147 ) ;
#300 = CC_DESIGN_PERSON_AND_ORGANIZATION_ASSIGNMENT ( #44, #298, ( #166 ) ) ;
#301 = CALENDAR_DATE ( 2021, 3, 12 ) ;
ENDSEC;
END-ISO-10303-21;
